PARAMORE

Tablature decode

Paramore
Pop/Rock
Ajouter à mes artistes favoris
Format : Tablature Decode pour Basse, Paramore
Version #3075068 mise en tablature par hinata.be
Difficulté : 5/10
Note : 3/5 sur 3 avis

Tablature Decode pour Basse, Paramore

Verse |-----------------------------| |-----------------------------| |-----------------------------| |-4(x16)-1(x16)-8(x16)-3(x16)-| Pre-Chorus |---------------------| |---------------------| |---------------------| |-4~--1~--8~--3(x16)--| Chorus: (1 non 11) |-------------------------------------| |-------------------------------------| |-----------33-4-4--------------------| |-444444444--------4-1111111111111111-| |-----------------------------------| |-----------------------------------| |-----------------------------------| |-8888888888888888-3333333333333333-| |-------------------------------------| |-------------------------------------| |-----------33-4-4--------------------| |-444444444--------4-1111111111111111-| |-----------------------------------------| |-----------------------------------------| |-----------------------------------------| |-8888888888888888-3333333333333-silence~-| Post-Chorus: |----------------------| |----------------------| |----------------------| |-8~---11/6~-------1-3-| Verse |-----------------------------| |-----------------------------| |-----------------------------| |-4(x16)-1(x16)-8(x16)-3(x16)-| Pre-Chorus |---------------------| |---------------------| |---------------------| |-4~--1~--8~--3(x16)--| Chorus:(1 non 11) |-------------------------------------| |-------------------------------------| |-----------33-4-4--------------------| |-444444444--------4-1111111111111111-| |-----------------------------------| |-----------------------------------| |-----------------------------------| |-8888888888888888-3333333333333333-| Solo: (1 non 11) |---------------------------------| |---------------------------------| |---------------------------------| |-44-444-444-44-4-11-111-111-11-1-| |---------------------------------| |---------------------------------| |---------------------------------| |-88-888-888-88-8-33-333-333-33-3-| Bridge: |------------------------| |------------------------| |------------------------| |-4~----1~----8~----3----| |-------------------------| |-------------------------| |-------------------------| |-4~--11/1~----8~----3----| Last Chorus: 3x |-------------------------------------| |-------------------------------------| |-----------33-4-4--------------------| |-444444444--------4-1111111111111111-| |-----------------------------------| |-----------------------------------| |-----------------------------------| |-8888888888888888-3333333333333333-| 3ème couplet terminer comme sa |-----------------------------------| |-----------------------------------| |-----------------------------------| |-8888888888888888-3333333333333/0--| Outro: |-----------------------| |-----------------------| |-----------------------| x4 |-4--6--1--8-3-4-8-3--6-| |--------| |--------| |--------| |-1-1-1~-|

Note cette tablature :



Connecte toi pour déposer un commentaire sur cette tablature !

Vos avis sur la tablature Decode de paramore #3075068


angelbasse

angelbasse

le 25/10/2010 19:50:33

ouais c'est pas trop ça mais c'est ça tite kokine !!


tite kokine

tite kokine

le 18/05/2010 23:01:00

désolé de le dire mais ya plin de fote ds cette tablature, je la fait avk mon group ds no concert et j'ai 8 ans de basse ds lé doight. Ce sont les bone notes mais le temps et les répétition des lignes est totalmen faux.
pour cette chanson il fo être accordé en drob-D c'est à dire que la corde mi soit en ré -> trè grav.
c'est pour doné plus de cor au morceau, ds cette chanson la basse ne va pas trè vite, sa ne sère à rien de faire plus.

structure:

Verse X2
|-----------------------------|
|-----------------------------|
|-----------------------------|
|--4(x8)--1(x8)--smyleybleux8)--3(x8)-|

Pre-Chorus
|---------------------|
|---------------------|
|---------------------|
|--4~--1~--8~--3(x8)--|

Chorus: (1 non 11) X2
|--------------------------------|
|--------------------------------|
|---------------33-4-4-----------|
|--444444444444--------11111111--|

|-------------------|
|-------------------|
|-------------------|
|-88888888-33333333-|

Post-Chorus:
|-----------------------------|
|-----------------------------|
|-----------------------------|
| silence-----11/6~-------1-3-|

Verse X2
|-----------------------------|
|-----------------------------|
|-----------------------------|
|--4(x8)--1(x8)--smyleybleux8)--3(x8)-|

Pre-Chorus
|---------------------|
|---------------------|
|---------------------|
|--4~--1~--8~--3(x8)--|

Chorusendesaccord31 non 11) X2
|------------------------------|
|------------------------------|
|--------------33-4-4----------|
|-444444444444--------11111111-|

|-------------------|
|-------------------|
|-------------------|
|-88888888-33333333-| on enchaine directement le solo


Solo: (1 non 11)
|------------------------------|
|------------------------------|
|------------------------------|
|-4444-4444-4-4--1111-1111-1-1-|

|------------------------------|
|------------------------------|
|------------------------------|
|-8888-8888-8-8--3333-3333-3-3-|

Bridge:
|------------------------|
|------------------------|
|------------------------|
|-4~----1~----8~----3----|

|------------------------|
|------------------------|
|------------------------|
|-12/1~----8~----3----4--|

Chorus: (1 non 11) X3
|--------------------------------|
|--------------------------------|
|---------------33-4-4-----------|
|--444444444444--------11111111--|

|-------------------|
|-------------------|
|-------------------|
|-88888888-33333333-|

Outro: X4
|-----------------------|
|-----------------------|
|-----------------------|
|-4--6--1--8-3-4-8-3--6-|

|--------|
|--------|
|--------|
|-0-0-0~-|


Decode

Album : brand new eyes

plus de tablatures de cet albumVoir cet album

tablature Decode paramore

Cette Tablature Decode de paramore est la création ou l'interprétation personnelle de l'artiste qui l'a déposé.
Conformément aux dispositions du Code de la Propriété Intellectuelle, seule l'utilisation de cette représentation pour un usage privé, réduite au cercle de famille, et la reproduction (impression, téléchargement) pour un usage strictement personnel, sont autorisés.
Rappel : Pour se conformer aux lois sur la propriété intellectuelle, les paroles de chansons ne sont pas autorisées sur Partoch.com. Retour aux Tablatures de paramore.