NOIR DESIR

Tablature un jours en france

Noir Desir
Pop/Rock
Ajouter à mes artistes favoris
Format : Tablature Un jours en france, Noir désir
Version #3037709 mise en tablature par gtrbass
Difficulté : 1/10
Note : 1/5 sur 11 avis

Tablature Un jours en france, Noir désir

moi je fait tout en accord rock ça fait: ------------------------------------------------------------------------ ------------------------------------------------------------------------ ------------------------------------------------------------------------ ------------------------------------------------------------------------ -9-9-9-9---8-8-8-8---12-12-12-12---8-8-8-8---9-9-9-9---8-8-8-8---3-3-3-3 -7-7-7-7---6-6-6-6---10-10-10-10---6-6-6-6---7-7-7-7---6-6-6-6---1-1-1-1 en boucle jusqu'as la fin.

Note cette tablature :

L'autre tablature disponible pour ce titre :

  • Pour Guitare :
  • Tablature Un Jours En France (intro)
  • << Retour aux tablatures de noir désir

    Des Visages Des Figures

    Des visages Des figures
    Type : Partition
    Edition ID Music

    28,00 €



    Connecte toi pour déposer un commentaire sur cette tablature !

    Vos avis sur la tablature un jours en france de noir désir #3037709


    Inconnu...

    Inconnu...

    le 26/08/2011 12:12:48

    lacie 63 : c'est ça gg


    Inconnu...

    Inconnu...

    le 12/05/2011 19:08:02

    Juste pouvez vous m'espliquer les Equivalences des nombres svp !! Je ne comprend pas j'ai apris avec les lettre

    par exemple:Am B A ..


    Inconnu...

    Inconnu...

    le 17/01/2011 18:48:54

    ---------------------------------------------------------
    ---------------------------------------------------------
    ---------------------------------------------------------
    ---------------------------------------------------------
    ----7-8-8-8-8-7-7-7-7-12-12-12-12-7-7-7-7-8-8-8-8-3-3-3-3
    ----5-6-6-6-6-5-5-5-5-10-10-10-10-5-5-5-5-6-6-6-6-1-1-1-1

    _____________________________________________________________


    ---------------------------------------------------------
    ---------------------------------------------------------
    ---------------------------------------------------------
    ---------------------------------------------------------
    ----7-8-8-8-8-7-7-7-7-12-12-12-12-7-7-7-7-3-3-3-3--------
    ----5-6-6-6-6-5-5-5-5-10-10-10-10-5-5-5-5-1-1-1-1--------
    jpence que sa serer pluto sa , commenter sa pour voir si jais raison ou pas car jais fait ces accord a loreilen ecoutant la zik ... merci =)


    Inconnu...

    Inconnu...

    le 29/05/2010 15:33:18

    tu t'es planté mec


    pirate34

    pirate34

    le 26/03/2010 06:28:59

    tu tes trompé la non


    tablature un jours en france noir désir

    Cette Tablature un jours en france de noir désir est la création ou l'interprétation personnelle de l'artiste qui l'a déposé.
    Conformément aux dispositions du Code de la Propriété Intellectuelle, seule l'utilisation de cette représentation pour un usage privé, réduite au cercle de famille, et la reproduction (impression, téléchargement) pour un usage strictement personnel, sont autorisés.
    Rappel : Pour se conformer aux lois sur la propriété intellectuelle, les paroles de chansons ne sont pas autorisées sur Partoch.com. Retour aux Tablatures de noir désir.