NIRVANA

Tablature rape me

Nirvana
Alternative
Ajouter à mes artistes favoris
Format : Tablature Rape me, Nirvana
Version #3034161 mise en tablature par rob1
Difficulté : 4/10
Note : 3/5 sur 11 avis

Tablature Rape me, Nirvana

E------------------------------------------------------------------------------------------ B------------------------------------------------------------------------------------------ G------------------------------------------------------------------------------------------ D-77-XXXXX-1010-22-XXXXX-55-77-XXXXX-1010-22-XXXXX-55-77 A-77-XXXXX-1010-22-XXXXX-55-77-XXXXX-1010-22-XXXXX-55-77 etc... E-55-XXXXX-8-8--00-XXXXX-33-55-XXXXX-8-8--00-XXXXX-33-55

Note cette tablature :



Connecte toi pour déposer un commentaire sur cette tablature !

Vos avis sur la tablature Rape me de nirvana #3034161


patard-69

patard-69

le 29/08/2010 13:02:45

les X ça veut dire qu'on refait les même notes : -7-7-XXX -7-
-7-7-XXX )-> Dans ce cas les " X " sont les même notes
-5-5-XXX en gros : -7-
-7-
-5- / X

Ca évite d'écrire les notes plusieurs fois tout simplement ...

Pour ceux qui on pas compris, j'ai traduis ce qui me semble juste :

E------------------------------------------------------------------------------------------
B------------------------------------------------------------------------------------------
G------------------------------------------------------------------------------------------
D-7-7-77-1010-02-2-22-55-0-7-7-77-1010-02-2-2-55-0-7-7- ...
A-7-7-77-1010-02-2-22-55-0-7-7-77-1010-02-2-2-55-0-7-7- ... etc...
E-5-5-55-8-8--00-0-00-33-0-5-5-55-8-8--00-0-0-33-0-5-5- ...

Voilà wink


sylvain3

sylvain3

le 19/01/2009 14:42:14

bien mais ça va aussi comme ça :

-----2-2--5-5-5--0-0--7-7-7--5-2-----
-----2-2--5-5-5--0-0--7-7-7--5-2-----
-------------------------------------
-------------------------------------
-------------------------------------
-------------------------------------


Inconnu...

Inconnu...

le 26/06/2008 20:31:39

X = armonic jme trompe?!
bref je trouve les deux version tres juste ....maIs
la version de urusei est trop compliker !


Inconnu...

Inconnu...

le 20/01/2008 10:00:27

sa veut dire que tu gratte les cordes mais étouffé


mangakanaaa

mangakanaaa

le 03/12/2006 13:02:10

mais sa ve dire quoi les x ?? ^^chu un gro d&but


Inconnu...

Inconnu...

le 19/10/2006 18:14:04

faux
--------------------------------------------------------
--------------------------------------------------------
---------------5-5--------------------------------------
-7-7-x-x-x-x-x-5-5-2-2-x-x-x-x-5-5-x-x-x-x--------------
-7-7-x-x-x-x-x-3-3-2-2-x-x-x-x-5-5-x-x-x-x--------------
-5-5-x-x-x-x-x-----0-0-x-x-x-x-3-3-x-x-x-x--------------


et repeter


Inconnu...

Inconnu...

le 14/10/2006 21:37:34

tres tres simple a jouer


frank49

frank49

le 31/07/2006 11:21:04

simple mais éfficace^^


Nirvana (partition)

Nirvana (Partition)
Type : Partition
Edition Imp

29,50 €

tablature Rape me nirvana

Cette Tablature Rape me de nirvana est la création ou l'interprétation personnelle de l'artiste qui l'a déposé.
Conformément aux dispositions du Code de la Propriété Intellectuelle, seule l'utilisation de cette représentation pour un usage privé, réduite au cercle de famille, et la reproduction (impression, téléchargement) pour un usage strictement personnel, sont autorisés.
Rappel : Pour se conformer aux lois sur la propriété intellectuelle, les paroles de chansons ne sont pas autorisées sur Partoch.com. Retour aux Tablatures de nirvana.