NIRVANA

Tablature heart shaped box

Nirvana
Alternative
Ajouter à mes artistes favoris
Format : Tablature Heart-shaped box, Nirvana
Version #3035200 mise en tablature par agrippa
Difficulté : 3/10
Note : 3/5 sur 30 avis

Tablature Heart-shaped box, Nirvana

Quelques petites précisions sur cette tablature : 1)J'ai une guitare sèche. Donc c'est acoustic. Donc je demande pardon au joueur de guitare electrique si par malheur ça ne correspond pas... J'en doute, mais mieux vaut prévenir que guérir. 2)Ce n'est que l'intro jouée au début par Kurt Cobain, ainsi quand dans les couplets. J'ai vaiment pas le courage d'attaquer le refrain ^^!! Donc voilà, faut jouer ça autant de fois qu'il est joué dans les couplet et dans l'intro (1 fois dans l'intro...). J'ai pas compté, et c'est pourquoi je vous conseille d'avoir la chanson chez vous... Allez, bonne gratte. E||-------------------------------||--------------------------------|| B||-------------------------------||--------------------------------|| G||-------------------------------||--------------------------------|| D||----7-------5---------2-------2||----7-------5------6-6-6-6-0-0-1|| A||--7---7---5---5----------2-2---||--7---7---5---5-----------------|| e||5-------3------0---------------||5-------3-------0---------------||

Note cette tablature :



Connecte toi pour déposer un commentaire sur cette tablature !

Vos avis sur la tablature Heart-Shaped Box de nirvana #3035200


Inconnu...

Inconnu...

le 09/05/2012 17:03:15

Pas mal mais j'ai quelques petits soucis niveau position des mains : passer d'une position 5/7 à 3/5 puis 1... beaucoup trop "astiquage de manche" à mon goût.

Adepte de la fainéantise asseyez plutôt un truc comme ça:

E||-------------------------------------------------------------------------------------------------|
B||-------------------------------------------------------------------------------------------------|
G||--------------2---------------------0------------------------------------------------------------ |
D||--------2----------2---------0------------0---------------------------2--------------2-----------|
A||-0---------------------------------------------------------------------------2----------------2----|
e||------------------------3-----------------------0------------------------------------------------|

|-------------------------------------------------------------------------------------------------------|
|-------------------------------------------------------------------------------------------------------|
|--------------2---------------------0--------------------1-----1------1------1------------------------|
|--------2----------2---------0------------0-----------------------------------------0-------0------1---|
|-0-----------------------------------------------------------------------------------------------------|
|------------------------3-----------------------0------------------------------------------------------|


C'est exactement la même chose mais pas besoin de bouger en horizontal. C'est beaucoup plus agréable ! wink


farther away

farther away

le 22/12/2011 21:13:54

J'ai essayé de la joué et elle est génial beau travail !


abeille13200

abeille13200

le 25/08/2010 23:16:18

Pas mal pas mal mais clémence a peut-etre raison ,sa sonne mieu . Continu comme ça


clémence deb

clémence deb

le 13/07/2010 00:33:06

Au milieu ya écrit :

-2-------2-
----2-2----
Et je croit bien qu'a la place c'est

----2----2---
-2-----2---2-

Jsuis pas très sur mais ça pour moi ça sonne plus juste

A vous de voir ^^

Ormi ça la tablature est hyper simple merci :)


Heart-Shaped Box

Album : In Utero

plus de tablatures de cet albumVoir cet album

Modern Guitar Anthems Purple Book (partition)

Modern Guitar Anthems Purple Book (Partition)
Type : Partition
Edition Imp

27,90 €

tablature Heart-Shaped Box nirvana

Cette Tablature Heart-Shaped Box de nirvana est la création ou l'interprétation personnelle de l'artiste qui l'a déposé.
Conformément aux dispositions du Code de la Propriété Intellectuelle, seule l'utilisation de cette représentation pour un usage privé, réduite au cercle de famille, et la reproduction (impression, téléchargement) pour un usage strictement personnel, sont autorisés.
Rappel : Pour se conformer aux lois sur la propriété intellectuelle, les paroles de chansons ne sont pas autorisées sur Partoch.com. Retour aux Tablatures de nirvana.