JACKSON MICHAEL

Tablature billie jean

Michael Jackson
Pop/Rock
Ajouter à mes artistes favoris
Format : Tablature Billie jean, Michael jackson
Version #3080267 mise en tablature par astucieux
Difficulté : 5/10
Note : 4/5 sur 4 avis

Tablature Billie jean, Michael jackson

-----Billie Jean----- -----Michael Jackson----- ---------------------- ---------------------- ---------------------- -4------4------------- x 8 ---4--7---7--4---4---- ---------------7------ -2------4-------------|-5------4------------- -2------4-------------|-5------4------------- -2------4-------------|--------4------------- -4------4-------------|-4------4------------- répéter plusieurs fois ---4--7---7--4---4----|---4--7---7--4---4---- ---------------7------|---------------7------

Note cette tablature :



Connecte toi pour déposer un commentaire sur cette tablature !

Vos avis sur la tablature Billie Jean de michael jackson #3080267


Inconnu...

Inconnu...

le 07/09/2010 05:40:10

ouaish' bonne tab' merci a toi (et a roudoudou200 pour sa p'tite correc')

franch'ment c'est cool MJ est immortel et c'est quand jouant ses chansons qu'il le restera ...
Il y a un petit riff vers le milieu de la chanson... dommage que tu ne l'aies pas...


Inconnu...

Inconnu...

le 25/06/2010 13:38:13

bien


roudoudou200

roudoudou200

le 27/01/2010 15:35:24

Sa sonne nikel mais tu te complique la vie.
Met un capo en 2 et tu fait :

---------------------------------------
---------------------------------------
---------------------------------------
---------2------0---2---0--------------
------------2---------------2---0----2-
---------------------------------------

---------0----------2------------------
---------0----------2------------------
---------0----------2------------------
---------2------0---2---0--------------
------------2---------------2---0----2-
---------------------------------------

---------3----------2------------------
---------3----------2------------------
--------------------2------------------
---------2------0---2---0--------------
------------2---------------2---0----2-
---------------------------------------

(Pour le -3- serez les cordes SI et MI aiqus avec votre anualaire )
-3-
---
-2-

Bonne chance j'espère avoir été utile wink


Billie Jean

Album : Not Guilty (Special Fan Edition)

plus de tablatures de cet album

The Complete Piano Player: 90s Hits

The Complete Piano Player: 90s Hits
Type : Partition
Edition Amscowyse

15,60 €

tablature Billie Jean michael jackson

Cette Tablature Billie Jean de michael jackson est la création ou l'interprétation personnelle de l'artiste qui l'a déposé.
Conformément aux dispositions du Code de la Propriété Intellectuelle, seule l'utilisation de cette représentation pour un usage privé, réduite au cercle de famille, et la reproduction (impression, téléchargement) pour un usage strictement personnel, sont autorisés.
Rappel : Pour se conformer aux lois sur la propriété intellectuelle, les paroles de chansons ne sont pas autorisées sur Partoch.com. Retour aux Tablatures de michael jackson.