METALLICA

Tablature chanson inconnu

Metallica
Métal
Ajouter à mes artistes favoris
Format : Tablature Chanson inconnu, Metallica
Version #3076690 mise en tablature par éponge02
Difficulté : 6/10
Note : 1/5 sur 3 avis

Tablature Chanson inconnu, Metallica

Un morceau d'un artiste inconnu -----19--15----17--14----------17--14-----15--12------15--12------------15--12------14-- --17--------17---------15--15----------13---------13-----------13---13----------13------ ---------------------------------------------------------------------------------------- ---------------------------------------------------------------------------------------- ---------------------------------------------------------------------------------------- ---------------------------------------------------------------------------------------- --12/14/12---11-----------------------------11--12--13--12------------------------------ ------------------13---12---13---15---13------------------------------------------------ ---------------------------------------------------------------------------------------- ---------------------------------------------------------------------------------------- ---------------------------------------------------------------------------------------- ---------------------------------------------------------------------------------------- rythme a joué rapidement

Note cette tablature :



Connecte toi pour déposer un commentaire sur cette tablature !

Vos avis sur la tablature chanson inconnu de metallica #3076690


Inconnu...

Inconnu...

le 31/12/2009 10:40:39

c'est l arpége de master of puppets, les notes sont fausses voila la vraie:

e|----19-15----17-14-------------17-14----15-12-----------------------| |
B|-17-------17-------15-15-15-15-------15-------13-13-13-13-----------| |
G|--------------------------------------------------------------------| |
D|--------------------------------------------------------------------| |
A|--------------------------------------------------------------------| |
E|--------------------------------------------------------------------| |
| X 2
e|-15-12----14-12h14p12-11-------------------11-12-14-----------------| |
B|-------13----------------13-12-13-15-13-15--------------------------| |
G|--------------------------------------------------------------------| |
D|--------------------------------------------------------------------| |
A|--------------------------------------------------------------------| |
E|--------------------------------------------------------------------| |

e|----------------15----15-17----19-15-12-----------------------------|
B|-17-17-17-17-19----19-------19----------13~~------------------------|
G|--------------------------------------------------------------------|
D|--------------------------------------------------------------------|
A|--------------------------------------------------------------------|
E|--------------------------------------------------------------------|

e|---------15-14----15-14---------------------------------------------|
B|-15b-15b-------12-------12----------15------------------------------|
G|---------------------------12-14-12-14b-14-12-----------------------|
D|----------------------------------------------14~~------------------|
A|--------------------------------------------------------------------|
E|--------------------------------------------------------------------|

e|--------------------------------------------------------------------|
B|--------------------------------------------------------------------|
G|-12-------12-12h14p12-11----14-12-11--------------------------------|
D|----14-12----------------12----------10~~---------------------------|
A|--------------------------------------------------------------------|
E|--------------------------------------------------------------------|

e|----------------------------15-11/12-11-------12//19----------------|
B|----------------------------------------12-11-11//17----------------|
G|--------------------9-10-12-----------------------------------------|
D|-7-9-10~~-7-9-10-12-------------------------------------------------|
A|--------------------------------------------------------------------|
E|--------------------------------------------------------------------|

e|----19-15----17-14-------------17-14----15-12-----------------------| |
B|-17-------17-------15-15-15-15-------15-------13-13-13-13-----------| |
G|--------------------------------------------------------------------| |
D|--------------------------------------------------------------------| |
A|--------------------------------------------------------------------| |
E|--------------------------------------------------------------------| |
| X 2
e|-15-12----14-12h14p12-11-------------------11-12-14-----------------| |
B|-------13----------------13-12-13-15-13-15--------------------------| |
G|--------------------------------------------------------------------| |
D|--------------------------------------------------------------------| |
A|--------------------------------------------------------------------| |
E|--------------------------------------------------------------------|


Inconnu...

Inconnu...

le 27/06/2009 09:08:21


C'est une partie de master of puppets, et elle est fausse -_-

Et en plus elle se joue lentement -_-


tablature chanson inconnu metallica

Cette Tablature chanson inconnu de metallica est la création ou l'interprétation personnelle de l'artiste qui l'a déposé.
Conformément aux dispositions du Code de la Propriété Intellectuelle, seule l'utilisation de cette représentation pour un usage privé, réduite au cercle de famille, et la reproduction (impression, téléchargement) pour un usage strictement personnel, sont autorisés.
Rappel : Pour se conformer aux lois sur la propriété intellectuelle, les paroles de chansons ne sont pas autorisées sur Partoch.com. Retour aux Tablatures de metallica.