MANSON MARILYN

Tablature sweet dreams

Marilyn Manson
Pop/Rock
Ajouter à mes artistes favoris
Format : Tablature Sweet dreams, Marilyn manson
Version #3029880 mise en tablature par matquem
Difficulté : 4/10
Note : 4/5 sur 21 avis

Tablature Sweet dreams, Marilyn manson

Marylin manson Sweet dreams E:---------------------------------------------------- B:------------------------------------------------------- G:--------------------------------------------------- D:-----5---6---5--------------------------------------- A:-3-3---3---3---3-----6/8-----5/6----------------------- E:-----------------4-4-----3-3--------------------------

Note cette tablature :



Connecte toi pour déposer un commentaire sur cette tablature !

Vos avis sur la tablature sweet dreams de marilyn manson #3029880


mat78800

mat78800

le 05/11/2010 14:28:35

tres bonne tab t'aurais pas la suite??


lucas-ride

lucas-ride

le 01/09/2009 14:41:00

elle est génial mais oué à la fin c'est 5h6


Inconnu...

Inconnu...

le 12/02/2009 20:39:29

c'est super!!!!!
sauf que la fin c'est :
---------------
---------------
---------------
---------------
---------5h6---
----33---------
c'est un hammer-on au lieu d'un slide
sinon tab genial.


Inconnu...

Inconnu...

le 10/11/2008 19:04:40

je fais plutot sa comme ceci mais bon ces pas male non plus

e:------------------------------------------------------------------------------------------------------------b:------------------------------------------------------------------------------------------------------------
g:-----0---1---0----------------------------------------------------------------------------------------------
d:--------------------0-1-----0-1-----------------------------------------------------------------------------
a:-3-3---3---3--------------------3---------------------------------------------------------------------------
e:----------------4-4-----3-3---------------------------------------------------------------------------------


tablature sweet dreams marilyn manson

Cette Tablature sweet dreams de marilyn manson est la création ou l'interprétation personnelle de l'artiste qui l'a déposé.
Conformément aux dispositions du Code de la Propriété Intellectuelle, seule l'utilisation de cette représentation pour un usage privé, réduite au cercle de famille, et la reproduction (impression, téléchargement) pour un usage strictement personnel, sont autorisés.
Rappel : Pour se conformer aux lois sur la propriété intellectuelle, les paroles de chansons ne sont pas autorisées sur Partoch.com. Retour aux Tablatures de marilyn manson.