HENDRIX JIMI

Tablature wild thing

Jimi Hendrix
Pop/Rock
Ajouter à mes artistes favoris
Format : Tablature Wild thing, Jimi hendrix
Version #3045412 mise en tablature par fanch9102
Difficulté : 5/10
Note : 3/5 sur 11 avis

Tablature Wild thing, Jimi hendrix

|--0---(0)-----(0)---0------(0)---0-----0---(0)---------| |--0---(0)-----(0)---0------(0)---0-----0---(0)---------| |--1----1-------6----6-------8----8-----6----6----------| |--2----2-------7----7-------9----9-----7----7----------| |--2----2-------7----7-------9----9-----7----7----------| |--0----0-------5----5---0---7----7-----5----5----0-----| |--0---0-------(0)-0-0--0----0---0------(0)-0-0--0------| |--0---0-------(0)-0-0--0----0---0------(0)-0-0--0------| |--1---1--------6--6-6--x----8---8-------6--6-6--x------| |--2---2--------7--7-7--x----9---9-------7--7-7--x------| |--2---2--------7--7-7--x----9---9-------7--7-7--x------| |--0---0------0-5--5-5--x----7---7----0--5--5-5--x------| |--0---0-------------------------II--------------------------------------------------| |--0---0-------------------------II--------------------------------------------------| |--8---8-------7--9--7------9----II--7--9--7-----9/----------------------------------| |--9---9-------7--9--7------9----II--7--9--7-----9/-------------x--x--x--x--x--x-----| |--9---9-------5--7--5------7----II--5--7--5-----7/-------------x--x--x--x--x--x-----| |--7---7------(0)-0-(0)-----0----II-(0)(0)(0)----0/-------------x--x--x--x--x--x-----|

Note cette tablature :



Connecte toi pour déposer un commentaire sur cette tablature !

Vos avis sur la tablature wild thing de jimi hendrix #3045412


bengalaas

bengalaas

le 28/08/2009 21:08:30


Ca sonne, mais pour ma part je le joue avec ces trois accords là :

E A B
0 0 2
0 2 4
1 2 4
2 2 4
2 0 2
0 0 2

Selon les lives que j'ai pu voir, il le joue comme ça, si on omet la nuance made in Jimi absolument inimitable et imprévisible


thejimihendrixexperience95

thejimihendrixexperience95

le 12/06/2009 19:50:43

----------------------------------------------------------------0--
----------------3--3------0---------------------------3--3-----0--------
------2--2--2---2--2-----0----------------------------2--2--------------
------2--2--2--------------------------2--2--2-----------------------
--------------------------------------2--2--2------------------------
-------------------------------------0--0--0-------------------------

après recommencez !!!

moi j'la joue comme ça !!!

pour le pont :

------------------------------------------------------
------5-7-5-7-5-7-5-7-9-7-5-7-5-4-5-4-5-4-5-4-5-6-5-2-4-2-4-2-4-0-2-4
------------------------------------------------------
------------------------------------------------------
------------------------------------------------------
------------------------------------------------------


guitar nico

guitar nico

le 22/04/2009 11:40:23

Cool!


Inconnu...

Inconnu...

le 23/01/2009 20:56:34

superbe tablature wink

tient pour le pont :

-----------------------
-----------------------
---7-9-7-9-7-9-7-9-10-9-7------6-7-6-7-6-7-6-7-9-7-6----4-6-4-6-4-6-4-6-4_2


apres tu fait ce que tu veux wink


maxrom

maxrom

le 14/09/2008 20:17:38

super parcontre je trouve que le pont, c'est pas tout a fait sa... mais bon boulot quand mm!!


wild thing

Album : Jimi Hendrix

plus de tablatures de cet album

Jimi Hendrix: Anthology (partition)

Jimi Hendrix: Anthology (Partition)
Type : Partition
Edition Amscowyse

23,30 €

tablature wild thing jimi hendrix

Cette Tablature wild thing de jimi hendrix est la création ou l'interprétation personnelle de l'artiste qui l'a déposé.
Conformément aux dispositions du Code de la Propriété Intellectuelle, seule l'utilisation de cette représentation pour un usage privé, réduite au cercle de famille, et la reproduction (impression, téléchargement) pour un usage strictement personnel, sont autorisés.
Rappel : Pour se conformer aux lois sur la propriété intellectuelle, les paroles de chansons ne sont pas autorisées sur Partoch.com. Retour aux Tablatures de jimi hendrix.