JEUX VIDEOS

Tablature zelda ocarina of time berceuse de zelda

Jeux Videos
Variétés
Ajouter à mes artistes favoris
Format : Tablature Zelda - ocarina of time - berceuse de zelda, Jeux videos
Version #3060997 mise en tablature par guitar pro gamer
Difficulté : 2/10
Note : 4/5 sur 15 avis

Tablature Zelda - ocarina of time - berceuse de zelda, Jeux videos

La note entre parenthèses est trop aigue pour être jouée sur une guitare mais le 15 sur la dernière corde sonne quand meme bien ;) /-------------------------------17--15--------------| /12--15------12--15------12--15--------15--13-12----| /-------14----------14---------------------------14-| /---------------------------------------------------| /---------------------------------------------------| /---------------------------------------------------| /-------------------------------17--15-22~~-laissez-| /12--15------12--15------12--15--------------sonner-| /-------14----------12------------------------------| /---------------------------------------------------| /---------------------------------------------------| /---------------------------------------------------| /22--20-19-17~~--20--19-17-15~~--22--20-19----19-22-(15)~~-| /------------------------------------------20--------------| /----------------------------------------------------------| /----------------------------------------------------------| /----------------------------------------------------------| /----------------------------------------------------------|

Note cette tablature :



Connecte toi pour déposer un commentaire sur cette tablature !

Vos avis sur la tablature Zelda - Ocarina Of Time - Berceuse De Zelda de jeux videos #3060997


alln35

alln35

le 03/07/2011 10:21:28

Elle est très bien mais je crois que le début est comme ça:


/------------------------------
/12--15------------12--15------
/-------14--12--14--------14---
/------------------------------
/------------------------------
/------------------------------
et pareil la deuxième fois, je dit ça parce que j'ai souvent écouté cette chanson ( je suis fan de zelda)^^.


Inconnu...

Inconnu...

le 21/12/2010 10:36:57

bien trouver meme si elle reste tres simplifiée =D


-gaïa-

-gaïa-

le 19/08/2010 14:55:44

bien trouve sa sonne parfaitement bien


Inconnu...

Inconnu...

le 06/06/2010 10:10:13

Ca sonne bien, mais la case 22 sur une folk.. bah c'est pas vraiment atteignable xDD mais merci (y)


Inconnu...

Inconnu...

le 23/07/2009 18:34:56

.


Inconnu...

Inconnu...

le 23/07/2009 18:34:29

.


Inconnu...

Inconnu...

le 10/04/2009 12:24:09

GENIAL !!!!!! J'adore cette tab Merci Beaucoup


ichiii

ichiii

le 30/12/2008 01:43:43

J'ai Aimer Ta Musique Mais Je Préfère Comme ça :



/-------------------------------7--5----------------|
/2--5------2--5------2--5--------5--3-2-------------|
/-------4----------4------------------------------4-|
/---------------------------------------------------|
/---------------------------------------------------|
/---------------------------------------------------|

/-------------------------------7--5-12~~-laissez---|
/2--5------2--5------2--5--------------sonner-------|
/-------4----------2--------------------------------|
/---------------------------------------------------|
/---------------------------------------------------|
/---------------------------------------------------|

/12--10-9-7~~--10--9-7-5~~--12--10-9----9-12-(5)~~---------|
/------------------------------------------10--------------|
/----------------------------------------------------------|
/----------------------------------------------------------|
/----------------------------------------------------------|
/----------------------------------------------------------|

Parce-que c'est plus facile pour une guitare normal
Je sais que le son est moins bien mais c'est mieux pour une guitare normal mais sinon j'ai adore


et MERCI comme car je l'a cherchais xD


-titi-

-titi-

le 26/12/2008 19:44:41

elle sonne trés bien et comme je suis fan de zelda jadore ^^


Inconnu...

Inconnu...

le 12/11/2008 00:40:28

je l'ais jouer et je trouve aussi que sa sonne bien^^


tablature Zelda - Ocarina Of Time - Berceuse De Zelda jeux videos

Cette Tablature Zelda - Ocarina Of Time - Berceuse De Zelda de jeux videos est la création ou l'interprétation personnelle de l'artiste qui l'a déposé.
Conformément aux dispositions du Code de la Propriété Intellectuelle, seule l'utilisation de cette représentation pour un usage privé, réduite au cercle de famille, et la reproduction (impression, téléchargement) pour un usage strictement personnel, sont autorisés.
Rappel : Pour se conformer aux lois sur la propriété intellectuelle, les paroles de chansons ne sont pas autorisées sur Partoch.com. Retour aux Tablatures de jeux videos.