JEUX VIDEOS

Tablature zelda le chant du temps

Jeux Videos
Variétés
Ajouter à mes artistes favoris
Format : Tablature Zelda - le chant du temps, Jeux videos
Version #3055869 mise en tablature par khall
Difficulté : 2/10
Note : 3/5 sur 19 avis

Tablature Zelda - le chant du temps, Jeux videos

Facile pour un premier morceau, ou simplement pour fans de Zelda :) ---------------------------------------------------------------------------- --0----------0---------0--2--1--0------0------------------------------------ ---------0----------0--------------2-0-------------------------------------- -----2----------2-------------------------2--------------------------------- ---------------------------------------------------------------------------- ---------------------------------------------------------------------------- Inspiré de la premiere version déposé qui m'a foi etait mauvaise, quelque peu réajuster donc :) N'hesitez pas a laisser un commentaire ;)

Note cette tablature :

L'autre tablature disponible pour ce titre :

  • Pour Guitare :
  • Tablature Zelda Le Chant Du Temps
  • << Retour aux tablatures de jeux videos




    Connecte toi pour déposer un commentaire sur cette tablature !

    Vos avis sur la tablature Zelda - Le Chant du Temps de jeux videos #3055869


    setsuko omura

    setsuko omura

    le 05/03/2012 21:50:55

    Il y a aussi cette version qui est un peu différente:


    1)-------------------------------------------
    2)---------------------1-0-------------------
    3)-2-------2-------2------0---0-2-----------
    4)---0--3----0--3-----------3-----0---2---0
    5)------------------------------------3------
    6)-------------------------------------------


    laura103

    laura103

    le 22/01/2012 18:26:58

    Celle ci est pas génial je trouve... Je ferais plus
    ----------------------------------------------------------------------------
    --0----------0---------0--3--2----------0-----------------------------------
    ---------0----------0-----------2--0--2-------------------------------------
    -----2----------2-------------------------2--0--4--2------------------------
    ----------------------------------------------------------------------------
    ----------------------------------------------------------------------------



    Inconnu...

    Inconnu...

    le 25/07/2011 18:53:37

    Pour une débutante ces cool , surtout pour une fan icon_cheesygrin . Mais je prefee celle de elzats . ^^'


    pignouf90

    pignouf90

    le 24/02/2011 13:43:33

    Personnellement celle d'elzats est parfait il a su corrigé tes fautes bolliboyed pour nous donner le chant qui berça notre enfance (ou pas forcément) je trouve que elzats et bolliboyed vous avez fait un bon travail d'équipe pour nous tous merci


    laura103

    laura103

    le 23/08/2010 21:54:59

    je trouve la version (corriger) très belle et elle est parfaite pour moi qui commence mon apprentissage de la gratte^^ merci beaucoup


    Inconnu...

    Inconnu...

    le 13/04/2010 13:11:09

    parfaitement corrigée elzats


    yomi-in-the-gratte

    yomi-in-the-gratte

    le 02/01/2010 14:05:35

    elztas : 5/5 ^^


    Inconnu...

    Inconnu...

    le 28/05/2009 20:53:30

    bolliboyed ta tablature est bonne mais y'a 2 erreur tient essai ça
    ----------------------------------------------------------------------
    --0-----------0-----------0---3---2---------------0-------------------
    ----------0-----------0---------------2---0---2-----------------------
    ------2-----------2-----------------------------------2---0---4---2---
    ----------------------------------------------------------------------
    ----------------------------------------------------------------------


    Inconnu...

    Inconnu...

    le 27/05/2009 17:42:57

    ouai


    nibo

    nibo

    le 17/04/2009 20:19:12

    3/5


    Inconnu...

    Inconnu...

    le 09/03/2009 11:20:54

    ympas a faire, le hiq c'est que je l'as connais pas asser pour vraiment juger ^^


    sk8eur

    sk8eur

    le 29/12/2008 14:37:41

    sa va pas mal


    bolliboyed

    bolliboyed

    le 08/12/2008 11:33:41

    je la trouve bien mais je trouve que ce serait peut etre (c'est un avis personnel) améliorable
    ----------------------------------------------------------------------
    --0-----------0-----------0---2---1---------------0-------------------
    ----------0-----------0---------------2---0---2-----------------------
    ------2-----------2-----------------------------------2---0---4---2---
    ----------------------------------------------------------------------
    ----------------------------------------------------------------------


    tablature Zelda - Le Chant du Temps jeux videos

    Cette Tablature Zelda - Le Chant du Temps de jeux videos est la création ou l'interprétation personnelle de l'artiste qui l'a déposé.
    Conformément aux dispositions du Code de la Propriété Intellectuelle, seule l'utilisation de cette représentation pour un usage privé, réduite au cercle de famille, et la reproduction (impression, téléchargement) pour un usage strictement personnel, sont autorisés.
    Rappel : Pour se conformer aux lois sur la propriété intellectuelle, les paroles de chansons ne sont pas autorisées sur Partoch.com. Retour aux Tablatures de jeux videos.