JEUX VIDEOS

Tablature le chant des tempetes zelda ocarina of time

Jeux Videos
Variétés
Ajouter à mes artistes favoris
Format : Tablature Le chant des tempetes zelda ocarina of time, Jeux videos
Version #3053620 mise en tablature par gus_gus1503
Difficulté : 3/10
Note : 3/5 sur 7 avis

Tablature Le chant des tempetes zelda ocarina of time, Jeux videos

-------------0-1-0-1-0-------------------------- ----3-----3------------1------------------------ -------------------------2--2-------2--2-----0-- -0-3---0-3--------------------0-0-3------0-3---2 ------------------------------------------------ parfait amuser vous bien

Note cette tablature :



Connecte toi pour déposer un commentaire sur cette tablature !

Vos avis sur la tablature le chant des tempetes zelda ocarina of time de jeux videos #3053620


dracaufeu14

dracaufeu14

le 17/07/2012 12:38:29

Fausse tab. Voici la vraie wink
e-------------------0-1-0-1-0----
B------3-------3--------------1--
G-------------------------------2
D--0-3-----0-3-------------------
A--------------------------------
E--------------------------------

e--------------------------------
B--------------------------------
G--2---------2---2-------0-------
D----0---0-3-------0---3---2-----
A--------------------------------
E--------------------------------

e-------------------0-1-0-1-0----
B------3-------3--------------1--
G-------------------------------2
D--0-3-----0-3-------------------
A--------------------------------
E--------------------------------

e--------------------------------
B--------------------------------
G--2---------2-------2-----------
D----0---0-3------------0--------
A--------------------------------
E--------------------------------


gsma

gsma

le 26/02/2010 13:36:27

merci je debute a la guitare et je trouve sa bien sympa de joue un truc que j'aime et dont je me souvint de la melodie et pour repondre a feugregois la notation des cordes est loin d'etre essentiel


feugregois

feugregois

le 26/12/2008 17:33:17

C'est bien mais marque bien toutes les cordes silteplait


tablature le chant des tempetes zelda ocarina of time jeux videos

Cette Tablature le chant des tempetes zelda ocarina of time de jeux videos est la création ou l'interprétation personnelle de l'artiste qui l'a déposé.
Conformément aux dispositions du Code de la Propriété Intellectuelle, seule l'utilisation de cette représentation pour un usage privé, réduite au cercle de famille, et la reproduction (impression, téléchargement) pour un usage strictement personnel, sont autorisés.
Rappel : Pour se conformer aux lois sur la propriété intellectuelle, les paroles de chansons ne sont pas autorisées sur Partoch.com. Retour aux Tablatures de jeux videos.