BLUNT JAMES

Tablature you re beautiful

James Blunt
Variétés
Ajouter à mes artistes favoris
Format : Tablature et Grille d'accords You're beautiful, James blunt
Version #3049898 mise en tablature par overnet
Difficulté : 1/10
Note : 2/5 sur 366 avis

Tablature et Grille d'accords You're beautiful, James blunt

------------------------------------------------ ------------------------------------------------ -----------------------------2-3---------------- ----0--------0---------------------------------- ------1-0-1----1-0-1-3-1-0-1-------------------- ------------------------------------------------ une tablature toute facile pour les débutants

Note cette tablature :

**


Connecte toi pour déposer un commentaire sur cette tablature !

Vos avis sur la tablature You're Beautiful de james blunt #3049898


julieee58

julieee58

le 27/11/2013 13:43:55

Je n'arrive pas à la lire comme je débute, y'a pas moyen de m'expliquer comme décrypter ?


snowpatrol

snowpatrol

le 28/04/2013 18:44:54

Je suis désolé, mais ça ne correspond pas à l'originale…


Inconnu...

Inconnu...

le 04/10/2011 14:38:27

Elle est affreuse ta tablature :O


noudine

noudine

le 15/06/2011 13:51:55

a mes yeux la tablature de STAR230 est la meilleure


enzobiams

enzobiams

le 26/08/2010 20:31:25

oui ça c'est beaucoup mieux:



--------------------------------------------------------------------------------------------------------
-------------4---3---4---------------4---3--4--------6---------4--3--4--------------------------
-----3-------------------------3-------------------------------------------------0---1--------------
--------------------------------------------------------------------------------------------------------
--------------------------------------------------------------------------------------------------------
--------------------------------------------------------------------------------------------------------


ginnyitsme

ginnyitsme

le 08/07/2010 10:44:17

coucou jadore cette chanson et je debute, mais comment obtenir la tablature de tariquet ? Merci !


@ntonyn

@ntonyn

le 29/06/2010 20:02:47

Super bonne tablature je trouce sa fait 2 3 jours kje usis sur ma guitare et jsuis vraiment debutant je connais 2 3 chansons mais celle la est celle que je metrise le mieux merci beaucoup jte donne 5/5


Inconnu...

Inconnu...

le 22/06/2010 18:33:18

Juste je ne comprends pas les deux dernière note : je les trouve très grave ! Je connais la chanson et c'est plutôt aigu a la fin non ?


Inconnu...

Inconnu...

le 25/01/2010 23:51:47

moi j'la joue comme tariquet et star230 et desolé mais je trouve que c'est plus resseblant x), enfin c'est juste que la tienne est un peu trop grave en fait :) mdr ♥


Inconnu...

Inconnu...

le 06/01/2010 00:06:28

on dirait jurasik parc aussi quand on la joue dans les aigue ...


Inconnu...

Inconnu...

le 27/12/2009 18:37:20


Enfin un morceau joué !!! BRAVO !!!


Inconnu...

Inconnu...

le 22/12/2009 12:29:51

mOi aussi je pense que c'est ça ^^:



--------------------------------------------------------------------------------------------------------
-------------4---3---4---------------4---3--4--------6---------4--3--4----------------------------------
-----3-------------------------3-------------------------------------------------0---1------------------
--------------------------------------------------------------------------------------------------------
--------------------------------------------------------------------------------------------------------
--------------------------------------------------------------------------------------------------------


bisx et bonne gratte a vous tous ^^


Inconnu...

Inconnu...

le 24/10/2009 14:11:50

Moi je dirais plus ça:
|-------------------------------------------------
|-----1--0--1-----1--0--1----3----1--0--1---------
|--0-----------0-----------------------------2---3
|-------------------------------------------------
|-------------------------------------------------
|-------------------------------------------------


star230

star230

le 03/10/2009 12:16:14

C'est trop dans les graves désolé mais c'est pas ça....

Pour moi ça serai plutot:

|-------------------------------------------------
|-----4--3--4-----4--3--4----6----4--3--4---------
|--0-----------0-----------------------------0---1
|-------------------------------------------------
|-------------------------------------------------
|-------------------------------------------------


Inconnu...

Inconnu...

le 26/09/2009 10:57:19

Overnet -> Ta tablature est bien trop dans les graves. Personnellement, celle de Tariquet me va bien mieux.


Inconnu...

Inconnu...

le 30/08/2009 21:17:07

Super !
Celle de Tariquet et plus facile pour moi qui débute mais les deux sont superbes !
Merci :)


romain 49

romain 49

le 26/08/2009 23:14:06

Extra Tariquet! Ca me fait penser à " l'amour est dans le pré" mdr


guitaristedu32

guitaristedu32

le 02/08/2009 16:38:52

Les deux tablatures sont correctes et reconnaissables à l'oreille, mais j'avoue également avoir un petit penchant d'faveur pour celle de tariquet.
Merci à vous deux.


Inconnu...

Inconnu...

le 29/04/2009 23:47:56

Tariquet merci pour ton aide ça marche très bien pour moi merci ! =D


Inconnu...

Inconnu...

le 11/03/2009 14:15:34

Merci combien de fois on le joue le morceau ? une estimation


calywen

calywen

le 17/11/2008 19:00:07

Oui, d'accord avec tariquet ^^


Inconnu...

Inconnu...

le 29/09/2008 01:06:16

pas mal du tou ça m'a vraimen plu icon_cheesygrin


You're Beautiful

Album : Back to Bedlam (Bonus Video Version)

plus de tablatures de cet albumVoir cet album

Audition Songs For Male Singers : Today's Chart Hits

Audition Songs for Male Singers : Today's Chart Hits
Type : Partition
Edition Hal Leonard

20,50 €

tablature You're Beautiful james blunt

Cette Tablature et Grille d'accords You're Beautiful de james blunt est la création ou l'interprétation personnelle de l'artiste qui l'a déposé.
Conformément aux dispositions du Code de la Propriété Intellectuelle, seule l'utilisation de cette représentation pour un usage privé, réduite au cercle de famille, et la reproduction (impression, téléchargement) pour un usage strictement personnel, sont autorisés.
Rappel : Pour se conformer aux lois sur la propriété intellectuelle, les paroles de chansons ne sont pas autorisées sur Partoch.com. Retour aux Tablatures de james blunt.