INDOCHINE

Tablature alice et june

Indochine
Pop/Rock
Ajouter à mes artistes favoris
Format : Tablature .alice et june., Indochine
Version #3054839 mise en tablature par mister h
Difficulté : 1/10
Note : 3/5 sur 44 avis

Tablature .alice et june., Indochine

|-------------------------------------------- |-------------------------------------------- |-------------------------------------------- |-8-8-8-8-7-7-7-7-12-12-12-12-12-12-12-12---- |-------------------------------------------- |--------------------------------------------

Note cette tablature :



Connecte toi pour déposer un commentaire sur cette tablature !

Vos avis sur la tablature .alice et june. de indochine #3054839


dr_snake

dr_snake

le 12/11/2010 14:34:54

Hello,

je sais que le post date un peu mais je me suis réveillé ce matin avec l'envié d'écouter un peu d'Indochine alors je le fais jusqu'à ce qu'arrive Alice & June et la, ma guitare à frémit légèrement et je me suis dit "Ca serait cool à jouer ça !!!".

Étant archi débutant à la gratte (je gratouille quelques airs bien connus de mes groupes préférés, rien de plus)je me mets à la recherche de la tablature.

Le premiers résultats sont assez peu concluant pour quelqu'un de mon niveau alors, ayant l'oreille musicale (enfin je crois), je commence à rechercher les tonalités et petit à petit, ça prend forme.

Au final, étant plus que satisfait du résultat, je branche mon ampli plein de poussière, je règle tous les boutons au max (sauf celui du volume), je mets la version original en fond sonore et je me lance !

Les premiers test sont assez découragent car j'aime commencer directement au bon rythme mais comme je l'ai dit, je suis un gros débutants !

Au final, je maîtrise ces quelques notes et je ne me lasse pas de les jouer jusqu'à attraper des crampes de dieu le père !

Je suis tellement content de moi que je tiens à vous partager mon travail (Hum !), c'est la première fois que j'écris une tablature alors merci de me faire remarquer d'éventuelles erreurs de ma part afin que je puisse progresser et qui sait, écrire d'autres tabs qui serviront à des débutants comme moi :)

PS : Par contre, si quelqu'un à les accords qui suivent ce que j'ai fais (en version simple mais juste) j'en serais ravi :)
PS : Les tabs précédentes permettent aussi de le jouer, il y à plusieurs façons

==================================================================================================

Indochine - Alice et June (By Dr_Snake)

Jouer 2x

e|---------------------------------------
b|---------------------------------------
g|------------77777777-----------77777777
d|--8888-7777----------8888-7777---------
a|---------------------------------------
e|---------------------------------------

Jouer 4x

e|-----------------------------------
b|-----------------------------------
g|------10-------10---7-7-10-7-7-10-7
d|--8-8----8-7-7----7----------------
a|-----------------------------------
e|-----------------------------------

Complet

e|---------------------------------------------------------------------------------------------------
b|---------------------------------------------------------------------------------------------------
g|------------77777777-----------77777777-----10-------10---7-7-10-7-7-10-7-----10------10---7-7-10-7
d|--8888-7777----------8888-7777----------8-8----8-7-7----7-----------------8-8---8-7-7----7---------
a|---------------------------------------------------------------------------------------------------
e|---------------------------------------------------------------------------------------------------

Faites un copier/coller dans le bloc notre car en ligne y'à des décallage :)


wind42

wind42

le 21/03/2010 13:32:13

yes c'est trop cool, j'aimerai avoir la suite


Inconnu...

Inconnu...

le 12/02/2010 23:34:15

La vraie donne 3 eme corde :

e|---------------------
b|---------------------
g|--3333-2222-77777777- en boucle =) Sinààh ça gere (Y'
d|---------------------
a|---------------------
e|---------------------

Voilà (A)Bonne gratte =D


ti_theo

ti_theo

le 01/11/2009 14:13:21

bien je m explose les dessue !!! ^^


dmworld

dmworld

le 23/08/2009 10:48:24

partoche assez drole puisque tu peu la jour sur la 4eme corde en 3333 2222 77777777


Inconnu...

Inconnu...

le 06/05/2009 15:14:31

Oui sa sonne bien =) Merci pour cette tablature !!


happiie-ending

happiie-ending

le 05/12/2008 19:40:11

Facile mais juste icon_cheesygrin


tablature .alice et june. indochine

Cette Tablature .alice et june. de indochine est la création ou l'interprétation personnelle de l'artiste qui l'a déposé.
Conformément aux dispositions du Code de la Propriété Intellectuelle, seule l'utilisation de cette représentation pour un usage privé, réduite au cercle de famille, et la reproduction (impression, téléchargement) pour un usage strictement personnel, sont autorisés.
Rappel : Pour se conformer aux lois sur la propriété intellectuelle, les paroles de chansons ne sont pas autorisées sur Partoch.com. Retour aux Tablatures de indochine.