POP IGGY

Tablature in the death car

Iggy Pop
Pop/Rock
Ajouter à mes artistes favoris
Format : Tablature In the death car, Iggy pop
Version #3062008 mise en tablature par craddle of manson
Difficulté : 4/10
Note : 2/5 sur 2 avis

Tablature In the death car, Iggy pop

77 8 9 10 55 6 5 4 77 8 9 5 6 5 4

Note cette tablature :

Les 2 autres tabs ou listes d'accords pour ce titre :

  • Pour Guitare :
  • Tablature In The Death Car (riff)
  • In The Death Car
  • << Retour aux tablatures de iggy pop




    Connecte toi pour déposer un commentaire sur cette tablature !

    Vos avis sur la tablature in the death car de iggy pop #3062008


    aqua22

    aqua22

    le 29/01/2012 21:58:22

    excellent


    Inconnu...

    Inconnu...

    le 21/02/2008 11:35:38

    it's sounds better like :

    |--------------------------------------------------------------------|
    |---12--12----------------------10--10-------------------------------|
    |-----------12--12--9--9----------------11--11-----------------------|
    |-------------------------10--------------------10--10--9------------|
    |--------------------------------------------------------------------|
    |--------------------------------------------------------------------|


    |--------------------------------------------------------------------|
    |---12--12----------------10-----------------------------------------|
    |-----------12--12--9--9------12--11--9---8--8--9--11--9--9--8--9----|
    |--------------------------------------------------------------------|
    |--------------------------------------------------------------------|
    |--------------------------------------------------------------------|

    or if you prefer :

    |-7--7------------|-5--5-----------|-7--7---------|-5-------|--------------- --|
    |------8-8--------|------7-7-------|------8-8-----|---8-7-5-|-4-4-5-7-5-5-4- 5-|
    |----------9-9----|----------5-5-4-|----------9-9-|---------|--------------- --|
    |--------------10-|----------------|--------------|---------|--------------- --|
    |-----------------|----------------|--------------|---------|--------------- --|
    |-----------------|----------------|--------------|---------|--------------- --|


    tablature in the death car iggy pop

    Cette Tablature in the death car de iggy pop est la création ou l'interprétation personnelle de l'artiste qui l'a déposé.
    Conformément aux dispositions du Code de la Propriété Intellectuelle, seule l'utilisation de cette représentation pour un usage privé, réduite au cercle de famille, et la reproduction (impression, téléchargement) pour un usage strictement personnel, sont autorisés.
    Rappel : Pour se conformer aux lois sur la propriété intellectuelle, les paroles de chansons ne sont pas autorisées sur Partoch.com. Retour aux Tablatures de iggy pop.