IDIR

Tablature a vava inouva

Idir
Musiques du Monde
Ajouter à mes artistes favoris
Format : Tablature A vava inouva, Idir
Version #3033095 mise en tablature par timour09
Difficulté : 2/10
Note : 3/5 sur 34 avis

Tablature A vava inouva, Idir

Bonjour, J'ai écrit cette petite tablature à l'oreille et je pense que cela correspond. Bonne gratte à tous. Le début : --3-3-5-7-5-3-2-0----------3-2-3-3-2-0-3-2---0-----3-3-3-5-7-5-3-2-0----------3-2-3-3-2-0-3-2---0 ------------------3--3-3-3-----------------3-----------------------3--3-3-3-----------------3---- ------------------------------------------------------------------------------------------------- ------------------------------------------------------------------------------------------------- ------------------------------------------------------------------------------------------------- ------------------------------------------------------------------------------------------------- Le refrain : --0-0-0-0-0-0-0-3-5-3-2-0-3-5-3-2-0---2-2-2-2-3-2-0----------3-2-3-3-2-0-3-2---0----------------- ----------------------------------------------------3--3-3-3-----------------3------------------- ------------------------------------------------------------------------------------------------- ------------------------------------------------------------------------------------------------- ------------------------------------------------------------------------------------------------- ------------------------------------------------------------------------------------------------- La suite : --0--0-0-2-3-3-5-3-2----------3-2-3-3-2-0-3-2---0------------------------------------------------ ---------------------3--3-3-3-------------------------------------------------------------------- ------------------------------------------------------------------------------------------------- ------------------------------------------------------------------------------------------------- ------------------------------------------------------------------------------------------------- ------------------------------------------------------------------------------------------------- par Timourinho

Note cette tablature :



Connecte toi pour déposer un commentaire sur cette tablature !

Vos avis sur la tablature A Vava Inouva de idir #3033095


boybelieber

boybelieber

le 05/08/2013 05:20:18

Vive La Kbylie


simo44

simo44

le 28/11/2011 13:27:51

Ma premiere tablature, c'est simplement cool


Inconnu...

Inconnu...

le 17/10/2011 19:26:24

sa sera bien si il y avais une vidéo avec cette superbe tablature comme sa on pourra mieux suivre vue qu'on est débutent :) xD


Inconnu...

Inconnu...

le 23/08/2011 13:33:30

trop fort


Inconnu...

Inconnu...

le 08/03/2011 16:11:05

Thank's elle est plutot bonne ta tablatur meme si je m y conné pas trop encore mais je trouve que c'est a peu prés sa


Inconnu...

Inconnu...

le 11/02/2011 14:39:53

Je suis débutant et tout ces chiffres, ça me fait mâle a la tête !
J'ai exercé de la musique Andalouse Mais bon. Ces chifres j'y comprends rien :p


fafamontana

fafamontana

le 10/12/2010 12:18:01

Magnifique , merci du fond du ceur . J'ais les larmes au yeux en la jouant
KABYLIE MON PAYS <3


slim74

slim74

le 29/10/2010 14:49:37

super


noémie59

noémie59

le 11/09/2010 18:03:23

Super


Inconnu...

Inconnu...

le 22/07/2010 23:30:56

ouai j'ai joué sa vite fait jpense que c'est plutot bon !!


Inconnu...

Inconnu...

le 23/06/2010 13:06:47

moi je dirais
--3-3-3-5-7-5-3-2-0---------3-2-3-3-2-0-3-2------0-
---------------------3-3-3------------------3------


amoulaa

amoulaa

le 16/06/2009 14:56:23

coucou je vous remercie mais vous pouvez me dire comment la joué car j'ai pas pu la lire je ve dire j'ai pas compris ce que ça veut dire ça ----- et 5-6 ... pouvez vous m'aidez s'il vous plait


Inconnu...

Inconnu...

le 25/01/2008 18:14:39

elle est parfaite merci de rendre hommage aux kabyle :)


Inconnu...

Inconnu...

le 16/01/2008 01:19:16

alors d'accord ou pas d'accord... je suis parti différemment pour l'intro :

-(6)/7-3-5-5//7-7-5-5-5-------------------(2)h3-2-2h3-3--3-2-2h3p2p0-3-2h3p2----------
------------------------8-7-5-5-5h7p5-3--3-----------------------------------3-3//5-5-
--------------------------------------------------------------------------------------
--------------------------------------------------------------------------------------
--------------------------------------------------------------------------------------
--------------------------------------------------------------------------------------

ce serait à mon sens la ligne de base... après je suis assez d'accord pour rajouter quelques y mettre des notes par dessus!


Inconnu...

Inconnu...

le 16/01/2008 01:10:50

ah désolé j'étais pas trop au courant du rendu!!! c'est une ligne mélodique biensur la je ne fait pas 2 notes a la fois! tout se suit


Inconnu...

Inconnu...

le 16/01/2008 01:09:09

alors d'accord ou pas d'accord... je suis parti différemment pour l'intro :

-(6)/7-3-5-5//7-7-5-5-5-------------------(2)h3-2-2h3-3--3-2-2h3p2p0-3-2h3p2----------
------------------------8-7-5-5-5h7p5-3--3-----------------------------------3-3//5-5-
--------------------------------------------------------------------------------------
--------------------------------------------------------------------------------------
--------------------------------------------------------------------------------------
--------------------------------------------------------------------------------------

ce serait à mon sens la ligne de base... après je suis assez d'accord pour rajouter quelques y mettre des notes par dessus!


Inconnu...

Inconnu...

le 14/12/2007 17:36:01

bravo angelus


mndrock

mndrock

le 01/09/2007 17:08:06

C'est quasiment ca, a quelque chose pret c'est parfait !
Felicitation !


ANGELUS 64, par contre ta tablature est completement fausse.


Inconnu...

Inconnu...

le 20/06/2006 02:36:39

y'en a qui ont, au moins, une meilleure oreille que d'autres, mais qui ont un peu de mal quand même :)


Inconnu...

Inconnu...

le 04/01/2006 19:20:00

a l'oreille je diré ca

--5-1-3-3/5-5--5-5-5-3-2-0-0-0h2----3-2-3--3-2-0-3-2-0-------------------
--------------------------------3--3----------------3--------------------
-------------------------------------------------------------------------
----------------------------------------------------------2-0h2-----2-0h2
---------------------------------------------------------2---------2-----
------------------------------------------------------0h3-------0h3------

-3-3-3-5-7-5-3-2-0-----3-2-3-3-2-0-3-2-0- ...
------------------3-3-3---------------3--
-----------------------------------------
-----------------------------------------
-----------------------------------------
-----------------------------------------


A Vava Inouva

Album : A vava inouva

plus de tablatures de cet albumVoir cet album

tablature A Vava Inouva idir

Cette Tablature A Vava Inouva de idir est la création ou l'interprétation personnelle de l'artiste qui l'a déposé.
Conformément aux dispositions du Code de la Propriété Intellectuelle, seule l'utilisation de cette représentation pour un usage privé, réduite au cercle de famille, et la reproduction (impression, téléchargement) pour un usage strictement personnel, sont autorisés.
Rappel : Pour se conformer aux lois sur la propriété intellectuelle, les paroles de chansons ne sont pas autorisées sur Partoch.com. Retour aux Tablatures de idir.