ZIMMER HANS

Tablature pirate des caraibes davy jones

Hans Zimmer
Musiques du Monde
Ajouter à mes artistes favoris
Format : Tablature Pirate des caraïbes - davy jones, Hans zimmer
Version #3057878 mise en tablature par millou333
Difficulté : 3/10
Note : 3/5 sur 5 avis

Tablature Pirate des caraïbes - davy jones, Hans zimmer

Voila un bout de Davis Jones, fait à l'oreille (je n'ai entendu que des extraits... si quelqu'un avait le morceau entier ca m'interesse), donc ca risque d'être un peu trop bas... si c'est la cas dites-le moi je remonterai la tablature. E ||--------------------------|--------------------------|--------------------------|-----------------|| B ||--------------------------|--------------------------|--------------------------|-----------------|| G ||-----------------0--------|--------------------------|--------------------------|-----------------|| D ||-----------0--2-----3--2--|--------0--1--------------|--2--3--2--------2--0-----|--2--------2--0--|| A ||--0--2--3-----------------|--2--3--------3--2--0--2--|-----------3--2--------3--|-----0--0--------|| E ||--------------------------|--------------------------|--------------------------|-----------------||

Note cette tablature :



Connecte toi pour déposer un commentaire sur cette tablature !

Vos avis sur la tablature Pirate des Caraïbes - Davy Jones de hans zimmer #3057878


Inconnu...

Inconnu...

le 24/02/2010 15:57:35

c'est super il faut juste remonter la tab stp


Inconnu...

Inconnu...

le 28/05/2008 15:28:54

Voilà j'ai trouvé un autre bout de la tablature, si tu la veux :

Davy Jones :

E---------0--1-----3--5-----8-6-5---------5-----6--8-----10-6-5-----3--
B---3------------------------------------------------------------------
G----------------------------------------------------------------------
D----------------------------------------------------------------------
A----------------------------------------------------------------------
E----------------------------------------------------------------------

E---5---------6-----8--5-----1--3-----6-5-1--------0--------------0----
B--------------------------------------------------------1--2--------3-
G----------------------------------------------------------------------
D----------------------------------------------------------------------
A----------------------------------------------------------------------
E----------------------------------------------------------------------


aliaga

aliaga

le 18/01/2008 19:22:58

ui tu pourrai remonter la tablature stp


gloss

gloss

le 16/05/2007 15:21:32

est ce que tu pourrai remonter la tablature stp

merci(uen fan de Pdc^^)


Inception - Movie Selections

Inception - Movie Selections
Type : Partition
Edition Alfred Publishing

20,70 €

tablature Pirate des Caraïbes - Davy Jones hans zimmer

Cette Tablature Pirate des Caraïbes - Davy Jones de hans zimmer est la création ou l'interprétation personnelle de l'artiste qui l'a déposé.
Conformément aux dispositions du Code de la Propriété Intellectuelle, seule l'utilisation de cette représentation pour un usage privé, réduite au cercle de famille, et la reproduction (impression, téléchargement) pour un usage strictement personnel, sont autorisés.
Rappel : Pour se conformer aux lois sur la propriété intellectuelle, les paroles de chansons ne sont pas autorisées sur Partoch.com. Retour aux Tablatures de hans zimmer.