EURYTHMICS

Tablature sweet dreams

Eurythmics
Pop/Rock
Ajouter à mes artistes favoris
Format : Tablature Sweet dreams, Eurythmics
Version #3063650 mise en tablature par titio001
Difficulté : 1/10
Note : 3/5 sur 8 avis

Tablature Sweet dreams, Eurythmics

----------------------------------------------------------------------------------------------------- ----------------------------------------------------------------------------------------------------- ----------------------------------------------------------------------------------------------------- 2X --------------2----3----2---------------------------------------------------------------------------- --------0-0-----0----0----0---------3----5----------2--3--------------------------------------------- ------------------------------1--1-----------0-0-----------------------------------------------------

Note cette tablature :



Connecte toi pour déposer un commentaire sur cette tablature !

Vos avis sur la tablature sweet dreams de eurythmics #3063650


pevnack

pevnack

le 12/09/2011 20:08:08

bof les deux


kutoros

kutoros

le 10/11/2010 21:09:42

Franchement désolé maximini mais ne met pas de tab en réponse si tu sait pas non plus comment elle se joue.

--------------------------------------------
--------------------------------------------
--------------------------------------------
--------------------------------------------
--------5--6--5-----------------------------
--3--3-----------3--------6--8--------5--6--
--------------------4--4--------3--3--------

2/5 quand même.


maximini

maximini

le 17/06/2010 19:39:29

ya plusieurs tabs de sweet dreams et la ta donné celle de marylin manson

on ta demandé celle de eurithmics


et pour celle de M manson c'est

-----------------------------------------------------------------------------------------------------
-----------------------------------------------------------------------------------------------------
----------------------------------------------------------------------------------------------------- 2X
--------------2----3----2----------------------------------------------------------------------------
--------0-0-----0----0----0---------3-------------2----------------------------------------------
------------------------------1-1------------0-0-----------------------------------------------------


sweet dreams

Album : Sweet Dreams (Are Made of This)

plus de tablatures de cet albumVoir cet album

The Complete Keyboard Player : Number Ones

The Complete Keyboard Player : Number Ones
Type : Partition
Edition Wise Publications

17,40 €

tablature sweet dreams eurythmics

Cette Tablature sweet dreams de eurythmics est la création ou l'interprétation personnelle de l'artiste qui l'a déposé.
Conformément aux dispositions du Code de la Propriété Intellectuelle, seule l'utilisation de cette représentation pour un usage privé, réduite au cercle de famille, et la reproduction (impression, téléchargement) pour un usage strictement personnel, sont autorisés.
Rappel : Pour se conformer aux lois sur la propriété intellectuelle, les paroles de chansons ne sont pas autorisées sur Partoch.com. Retour aux Tablatures de eurythmics.