MOIRE EMMANUEL

Tablature mon essentiel avec arpeges

Emmanuel Moire
Variétés
Ajouter à mes artistes favoris
Format : Tablature et Grille d'accords Mon essentiel (avec arpèges), Emmanuel moire
Version #3029763 mise en tablature par nojika
Difficulté : 5/10
Note : 1/5 sur 9 avis

Tablature et Grille d'accords Mon essentiel (avec arpèges), Emmanuel moire

Salut j'ai trouvé ça à l'oreille (galèèèère) et ça rend pas mal, mieux que ce que j'ai trouvé sur le site (à mon goût, normal c'est ma tab ^^). la fin je suis pas certain mais c'est pas mal pour débuter. enfin bref c'est toujours mieux que rien. il faut être capo 2 Bm(ou Ds) D La ----2----------------3-----------------2^0----------------0---------------------------- ----------3---3------------3---3------------3---------0-----------2---0---------------- ------------2---2------------2---2---------------2-------------------------2----0------ ----3----------------0----------------------------------------------------------------- --------------------------------------------------------------------------------------- --------------------------------------------------------------------------------------- ---2--- ---2--- ---2--- ---3--- annulaire -------- ---2--- ---2--- -------- ------- ---2--- -------- ------- Bm G D A Bm G D A Bm G D A Bm G D A Bm G D A Bm G D A Bm G D A Bm G D A Refrain: Bm G D A Bm G D A Bm G D A Bm G D A Bm G D A kiss ! ! !

Note cette tablature :



Connecte toi pour déposer un commentaire sur cette tablature !

Vos avis sur la tablature mon essentiel (avec arpèges) de emmanuel moire #3029763


lamoureuse2

lamoureuse2

le 15/09/2005 12:26:05

(tiré de l'autre tab "arpège 100% correct"
Sim Sol ^ Ré La
-2-----------|--3----------|--2-0-----------|--0-----------
---3---------|----0--------|-------3--------|-----2--------
------4---4--|------0---0--|---------2---2--|-------2---2--
-------------|-------------|--0--------0----|--------------
-2------2----|-------------|----------------|--0------0----
-------------|--3-----3----|----------------|--------------


Inconnu...

Inconnu...

le 05/08/2005 16:55:14

la variente de takamanx est mieu. écoute la début ça fait
---2--
------
------
------
---2--
------

au lieu de

---2--
------
------
---3--
------
------


Inconnu...

Inconnu...

le 28/07/2005 15:27:50

Cette belle chanson n'est pas fort juste quand vous la jouez en Bm. Si vouz ecoutez la chanson et essayez de la jouer
en Bm, vous allez entendre qu'il faut la jouer en C#m....
Voici les chords :

C#m A E B.


Inconnu...

Inconnu...

le 22/06/2005 19:30:17

J'ai une variante de l'intro à proposer, ça a pas l'air trop mal.

Toujours en capo 2

Bm(ou Ds) G D A

----2----------------3-----------------2^0------------0-------------
----------3---3------------3---3------------3--------------0---2----
------------0---0------------0---0-------------2-4-----------2---0--
---------------------------------------0----------------------------
----2---------------------------------------------------------------
---------------------3----------------------------------------------


Inconnu...

Inconnu...

le 22/06/2005 19:12:21

Tentes ma voariante, ça a pas l'air trop mal.

Toujours en capo 2

Bm(ou Ds) G D A

----2----------------3-----------------2^0------------0-------------
----------3---3------------3---3------------3--------------0---2----
------------0---0------------0---0-------------2-4-----------2---0--
---------------------------------------0----------------------------
----2---------------------------------------------------------------
---------------------3----------------------------------------------


satchbooogie

satchbooogie

le 17/05/2005 13:27:49

TU crois pas que ton Bm spécial a vraiment un son spécial wink


tablature mon essentiel (avec arpèges) emmanuel moire

Cette Tablature et Grille d'accords mon essentiel (avec arpèges) de emmanuel moire est la création ou l'interprétation personnelle de l'artiste qui l'a déposé.
Conformément aux dispositions du Code de la Propriété Intellectuelle, seule l'utilisation de cette représentation pour un usage privé, réduite au cercle de famille, et la reproduction (impression, téléchargement) pour un usage strictement personnel, sont autorisés.
Rappel : Pour se conformer aux lois sur la propriété intellectuelle, les paroles de chansons ne sont pas autorisées sur Partoch.com. Retour aux Tablatures de emmanuel moire.