DESSINS ANIMES

Tablature l air du vent

Dessins Animes
Variétés
Ajouter à mes artistes favoris
Format : Tablature L'air du vent, Dessins animes
Version #3077656 mise en tablature par crepos
Difficulté : 5/10
Note : 4/5 sur 7 avis

Tablature L'air du vent, Dessins animes

E -------------------------------------------------------------------------------------------------- B ----5-8-8-5-5-3-3---3------5-8-8-5-5-3-3--5----8-10-8-8-5-5-3-3---3------5-3--3-3-5-8--3--5------- G --5---------------5---2--5--------------5-----------------------5----2-5--------------------2----- a faire deux fois, puis E ------10-9-9-7-7-5-2---2-5-7--5--10-9-9-7-7-5-2-0-2---2-5-10-9-9-7-7-5-5-7-5---------------------- B -5-10----------------5------------------------------------------------------3--------------------- G -------------------------------------------------------------------------------------------------- E -------------------------------------------------------------------------------------------------- B ---3-5-7-7-5-5-3-0-3-3---------------------------------------------------------------------------- G -4------------------------------------------------------------------------------------------------ Voila la tablature :) Il faut y aller doucement au début pouur trouver le bon rythle, Bonne Gratte

Note cette tablature :



Connecte toi pour déposer un commentaire sur cette tablature !

Vos avis sur la tablature L'air du vent de dessins animes #3077656


perezouil

perezouil

le 09/03/2015 20:21:51

putain mais qui fais les tab?


erik2222

erik2222

le 17/03/2014 09:50:11

E -----------------------------------------------------------------------------------------
B ----5-8-8-5-5-3-3---3------5-8-8-5-5-3-3---5---8-10-8-8-5-5-3-3----3---3-3-3-5-8--3--5---
G --5---------------5---2--5---------------5-----------------------5---2-----------------2-
D -----------------------------------------------------------------------------------------
A -----------------------------------------------------------------------------------------
E -----------------------------------------------------------------------------------------


E --------10-9-9-7-7-5-2---2-5-7--5--10-9-9-7-7-5-2-0-2---2-5-10-9-9-7-7-5-5-7-5-----------
B ---7-10----------------5------------------------------------------------------3----------
G -----------------------------------------------------------------------------------------
D -----------------------------------------------------------------------------------------
A -----------------------------------------------------------------------------------------
E -----------------------------------------------------------------------------------------

E -----------------------------------------
B ---3-7-5-5-7-10-5-7-0--------------------
G -----------------------------------------
D -----------------------------------------
A -----------------------------------------
E -----------------------------------------


tdcn

tdcn

le 28/05/2010 17:35:13

Félicitation!! J'adore.


fumiko

fumiko

le 19/05/2010 21:00:03

I love it!


cyrileuh

cyrileuh

le 01/12/2009 15:01:28

je n'ait qu'un seul mot bravo!
des que la vitesse se fait entendre le morceau devient très joli bravo encore une fois


tablature L'air du vent dessins animes

Cette Tablature L'air du vent de dessins animes est la création ou l'interprétation personnelle de l'artiste qui l'a déposé.
Conformément aux dispositions du Code de la Propriété Intellectuelle, seule l'utilisation de cette représentation pour un usage privé, réduite au cercle de famille, et la reproduction (impression, téléchargement) pour un usage strictement personnel, sont autorisés.
Rappel : Pour se conformer aux lois sur la propriété intellectuelle, les paroles de chansons ne sont pas autorisées sur Partoch.com. Retour aux Tablatures de dessins animes.