DESSINS ANIMES

Tablature il en faut peu pour etre heureux

Dessins Animes
Variétés
Ajouter à mes artistes favoris
Format : Tablature et Grille d'accords Il en faut peu pour etre heureux, Dessins animes
Version #2805630 mise en tablature par belounga
Difficulté : 5/10
Note : 3/5 sur 21 avis

Tablature et Grille d'accords Il en faut peu pour etre heureux, Dessins animes

Il en faut peu pour être heureux Tempo 4/4 à 100 Accompagnement C C7 E||---------------------|-----0------0------0------0---| B||----------1--0-------|-----1------1------1------1---| G||----------------2----|-------0------0------0------3-| D||---------------------|------------------------------| A||-------------0--2----|---------3------3------3------| E||----------3----------|--3---------------------------| F F7 C A7 -----1------1------1------1---|-----0------0------3------3---| -----1------1------1------1---|-----1------1------2------2---| -------2------2------2------2-|-------0------0------2------2-| ------------------------------|------------------------------| -----------------------0------|----------------0------0------| --1------1------1-------------|--3------3--------------------| D7 G7 C -----2------2------3------3---|-----0------0------0------0---| -----1------1------3------6---|-----1------1------1------1---| -------2------2------4------4-|-------0------0------0------3-| --0------0--------------------|------------------------------| -----------------------3------|---------3------3------3------| ----------------3-------------|--3---------------------------| F F7 C A7 C -----1------1------1------1---|-----0------0------2------1---| -----1------1------1------1---|-----1------2------1------0---| -------2------2------2------2-|-------0------0------2------0-| -----------------------1------|----------------0-------------| ------------------------------|---------0--------------------| --1------1------1-------------|--3--------------------3------| G7 C -----0------0------1------0---|| -----1------1------0------1---|| -------0------0------0------0-|| ------------------------------|| --3------3-------------3------|| ----------------3-------------|| Pour garder l'esprit du morceau jouez très proche du chevalet pour que ça sonne un peu banjo... Pour entendre ce que ça donne vous pouvez récupérer le fichier midi sur http://www.ifrance.com/Chez-Felix/baloo.mid voici la partie mélodie Voix E||---------------------|----0-------0-----------|--------------------------| B||------------------1--|---------4-----3-1--1---|--3--1--3--1--3--1--------| G||------------0--2-----|------------------------|-------------------2--0---| D||---------------------|------------------------|--------------------------| A||---------------------|------------------------|--------------------------| E||---------------------|------------------------|--------------------------| -----------0--5--3--1--0--|-------------5--5--3--|----5----3--5--3-0-------| --1-----1-----------------|--3-------------------|--------------------1--3-| -----0--------------------|----------------------|-------------------------| --------------------------|----------------------|-------------------------| --------------------------|----------------------|-------------------------| --------------------------|----------------------|-------------------------| -------------5----------0-|----3--0--3--0-----------|-------------------|| ----1--3--1--------3--4---|----------------1--------|--1----------------|| ----------------5---------|------------------2--0---|-------------------|| --------------------------|-------------------------|-------------------|| --------------------------|-------------------------|-------------------|| --------------------------|-------------------------|-------------------|| A+ Belounga O

Note cette tablature :



Connecte toi pour déposer un commentaire sur cette tablature !

Vos avis sur la tablature Il en faut peu pour etre heureux de dessins animes #2805630


erik2222

erik2222

le 17/03/2014 09:27:33


E||---------------------|----0-------0-----------|--------------------------|
B||------------------1--|---------3-----3-1--1---|--3--1--3--1--3--1--------|
G||------------0--2-----|------------------------|--------------------2-2---|
D||---------------------|------------------------|--------------------------|
A||---------------------|------------------------|--------------------------|
E||---------------------|------------------------|--------------------------|



-----------0--5--3--1--0--|----------3---5--3--5--|-3---5----3--0------------|
--------1-----------------|--3-------------------|----------------1--3--1--3-|
---0--0-------------------|----------------------|---------------------------|
--------------------------|----------------------|---------------------------|
--------------------------|----------------------|---------------------------|
--------------------------|----------------------|---------------------------|



------------------3—0-----|----3--0--3--0-----------|-------------------||
----1--3--1---------------|----------------1--------|--1----------------||
-------------2------------|------------------2--0---|-------------------||
--------------------------|-------------------------|-------------------||
--------------------------|-------------------------|-------------------||
--------------------------|-------------------------|-------------------||


lili97kat

lili97kat

le 27/06/2010 13:18:27

J'arrive qu'à faire la deuxième partie . Cool ^^


lerocker

lerocker

le 03/07/2009 15:18:09

super mais à la partie voix 2ème mesure, ça sonne mieux avec un 3 plutot q'un 4


hamak3

hamak3

le 25/05/2009 20:19:07

moi je dit bravo a la parti voix car je yarrive pas a l'autre^^
++


maxplanck

maxplanck

le 06/05/2009 18:23:26

Impeccable ^^


tablature Il en faut peu pour etre heureux dessins animes

Cette Tablature et Grille d'accords Il en faut peu pour etre heureux de dessins animes est la création ou l'interprétation personnelle de l'artiste qui l'a déposé.
Conformément aux dispositions du Code de la Propriété Intellectuelle, seule l'utilisation de cette représentation pour un usage privé, réduite au cercle de famille, et la reproduction (impression, téléchargement) pour un usage strictement personnel, sont autorisés.
Rappel : Pour se conformer aux lois sur la propriété intellectuelle, les paroles de chansons ne sont pas autorisées sur Partoch.com. Retour aux Tablatures de dessins animes.