DEEP PURPLE

Tablature smoke on the water

Deep Purple
Pop/Rock
Ajouter à mes artistes favoris
Format : Tablature Smoke on the water, Deep purple
Version #3038970 mise en tablature par mullen-good
Difficulté : 1/10
Note : 3/5 sur 90 avis

Tablature Smoke on the water, Deep purple

voila, y'a pas plus simple : ----------------------------- ----------------------------- ----------------------------- -0-3-5---0-3-6-5---0-3-5-3-0- -0-3-5---0-3-6-5---0-3-5-3-0- ----------------------------- j'espere qu'elle est juste :)

Note cette tablature :



Connecte toi pour déposer un commentaire sur cette tablature !

Vos avis sur la tablature Smoke On The Water de deep purple #3038970


Inconnu...

Inconnu...

le 07/10/2009 17:47:15

Salut, moi je la joue comme ça:
---------------------------------------------
---------------------------------------------
-----0--3--5---0--3--6--5---0--3--5--0-------
-----0--3--5---0--3--6--5---0--3--5--0-------
---------------------------------------------
---------------------------------------------


julien15

julien15

le 15/08/2009 13:47:26

moi je le joue comme sa:

--------------------------------
--------------------------------
----3--5----3--6--5----3--5--3-------
-5--3--5-5--3--6--5-5--3--5--3-5--------
-5-------5----------5----------5-----
-----------------------------------


hayk

hayk

le 02/05/2009 19:09:17

Très bonnes tablatures ( oui elle est juste ) .


Smoke On The Water

Album : A to Z of Rock (disc 1)

plus de tablatures de cet album

Greatest Hits (transcribed Scores) (partition)

Greatest Hits (Transcribed Scores) (Partition)
Type : Partition
Edition Hal Leonard

26,10 €

tablature Smoke On The Water deep purple

Cette Tablature Smoke On The Water de deep purple est la création ou l'interprétation personnelle de l'artiste qui l'a déposé.
Conformément aux dispositions du Code de la Propriété Intellectuelle, seule l'utilisation de cette représentation pour un usage privé, réduite au cercle de famille, et la reproduction (impression, téléchargement) pour un usage strictement personnel, sont autorisés.
Rappel : Pour se conformer aux lois sur la propriété intellectuelle, les paroles de chansons ne sont pas autorisées sur Partoch.com. Retour aux Tablatures de deep purple.