NOUGARO CLAUDE

Tablature armstrong

Claude Nougaro
Jazz
Ajouter à mes artistes favoris
Format : Tablature Armstrong, Claude nougaro
Version #3081059 mise en tablature par sonofbrutus
Difficulté : 3/10
Note : 2/5 sur 3 avis

Tablature Armstrong, Claude nougaro

------------------------------------------------------------------- -1-1--0--1-1------------------1-1--0-0--1-1------------------------ ------------2------1-1--2-------------------2------1-1--2--2---2-2- -------------2-2-----------------------------2-2-------------2----- ------------------------------------------------------------------- ------------------------------------------------------------------- ------0--0--0-0------------------------------------------0-0--0-0- -3-3-------------3--1----1---------------------------3-3---------- ----------------------2------2------1-1--2---2---2-2-------------- --------------------------------2-2-----------2------------------- ------------------------------------------------------------------ ------------------------------------------------------------------ --------------------- -2-1-1--------------- ----2-2-----1-1-2---- --------2-2---------- --------------------- --------------------- C'est ma premiere tab' ^^

Note cette tablature :



Connecte toi pour déposer un commentaire sur cette tablature !

Vos avis sur la tablature Armstrong de claude nougaro #3081059


léotablature

léotablature

le 09/08/2010 17:30:55

BOF


marrinea

marrinea

le 08/06/2010 16:52:06


-------------------------------------------------------------------
-1-1--0-0-1-1------------------1-1--0-0--1-1----------------------- je rajouterai ça moi ...
------------2------1-1--2-------------------2------1-1--2--2---2-2-
-------------2-2-----------------------------2-2-------------2-----
-------------------------------------------------------------------
-------------------------------------------------------------------


------0--0--0-0------------------------------------------0-0--0-0-
-3-3-------------3--1----1---------------------------3-3----------
----------------------2------2------1-1--2---2---2-2--------------
--------------------------------2-2-----------2-------------------
------------------------------------------------------------------
------------------------------------------------------------------


---------------------
-2-1-1---------------
----2-2-----1-1-2----
--------2-2----------
---------------------
---------------------

j'adore cette chanson.


Guitare Solo N°3 (partition+cd)

Guitare Solo n°3 (Partition+CD)
Type : Partition
Edition Lemoine

23,30 €

tablature Armstrong claude nougaro

Cette Tablature Armstrong de claude nougaro est la création ou l'interprétation personnelle de l'artiste qui l'a déposé.
Conformément aux dispositions du Code de la Propriété Intellectuelle, seule l'utilisation de cette représentation pour un usage privé, réduite au cercle de famille, et la reproduction (impression, téléchargement) pour un usage strictement personnel, sont autorisés.
Rappel : Pour se conformer aux lois sur la propriété intellectuelle, les paroles de chansons ne sont pas autorisées sur Partoch.com. Retour aux Tablatures de claude nougaro.