CINEMA

Tablature stand by me

Cinema
Variétés
Ajouter à mes artistes favoris
Format : Tablature Stand by me, Cinema
Version #3050508 mise en tablature par demaite
Difficulté : 2/10
Note : 3/5 sur 19 avis

Tablature Stand by me, Cinema

Stand by me _"1ère" partie: e-------------------- g------------------- b------------------- d------------------ a---3--3----2--3--3 E---------3-------- _"2ème" partie: e--------------- g--------------- b--------------- d----------------- a-3--2--0--0---0--0 E------------3----- _"3ème" partie: e------------------------- g-------------------------- b------------------------- d-------------------------- a-0-----------0------2--3--3 E---3--1--1--1--3--3-------- (note:on peut enchainer la fin avec la 1ère partie)

Note cette tablature :



Connecte toi pour déposer un commentaire sur cette tablature !

Vos avis sur la tablature Stand by me de cinema #3050508


Inconnu...

Inconnu...

le 09/02/2010 21:54:11

c'est pas sa ti est presq m c'est comm sa:


e--------------------------------------------------------------
g--------------------------------------------------------------
b--------------------------------------------------------------
d--------------------------------------------------------------
a---2--3--3---2--3--3--3--2--0--0----0--0--0------------0------
E-3---------3----------------------3---------3--1--1--1---3--3- et la tu recommence du debut


Inconnu...

Inconnu...

le 09/02/2010 21:53:26

c'est chian les note son decaler comparee a sqe j ecri pff lol


Inconnu...

Inconnu...

le 09/02/2010 21:51:26

c'est pas sa ti est presq m c'est comm sa:


e--------------------------------------------------------------
g--------------------------------------------------------------
b--------------------------------------------------------------
d--------------------------------------------------------------
a---2--3--3---2--3--3--3--2--0--0----0--0--0------------0------
E-3---------3----------------------3---------3--1--1--1---3--3- et la tu recommence du debut


shiiou-059

shiiou-059

le 19/11/2009 20:32:40

Petit problème lorsce que j'ai écrit ... il se décale lol
enfin bref le 3-1-1-1 et décalé avec tout ce qui suit wink


shiiou-059

shiiou-059

le 19/11/2009 20:31:20


Moi j'ai plutot trouver sa :


e-------------------------------------------------------------
g-------------------------------------------------------------
b-------------------------------------------------------------
d-------------------------------------------------------------
a---2--3--3--2--3--3--3--2--0--0--3--2--0--0--0---------------0--
E-3---------3-------------------------------------3--1--1--1---3

Jme trompe peut etre wink


tablature Stand by me cinema

Cette Tablature Stand by me de cinema est la création ou l'interprétation personnelle de l'artiste qui l'a déposé.
Conformément aux dispositions du Code de la Propriété Intellectuelle, seule l'utilisation de cette représentation pour un usage privé, réduite au cercle de famille, et la reproduction (impression, téléchargement) pour un usage strictement personnel, sont autorisés.
Rappel : Pour se conformer aux lois sur la propriété intellectuelle, les paroles de chansons ne sont pas autorisées sur Partoch.com. Retour aux Tablatures de cinema.