CINEMA

Tablature harry potter

Cinema
Variétés
Ajouter à mes artistes favoris
Format : Tablature Harry potter, Cinema
Version #3079375 mise en tablature par mel62450
Difficulté : 2/10
Note : 4/5 sur 5 avis

Tablature Harry potter, Cinema

E-----0--------3-2-0---------7-5-------------2---------0-3-2---------1----- A-0---------------------------------------------------------------3-----------0 D------------------------------------------------------------------------------ G------------------------------------------------------------------------------ B------------------------------------------------------------------------------ e------------------------------------------------------------------------------ E-----0--------3-2-0---------7-10---9-8---5-8-7-6---------3------0------- A-0---------------------------------------------------------0------------------ D------------------------------------------------------------------------------ G------------------------------------------------------------------------------ B------------------------------------------------------------------------------ e------------------------------------------------------------------------------ E-----3-7-------3-7----------3-10---9-8---5-8-7-6---------3------0------- A----------------------------------------------------------0------------------ D----------------------------------------------------------------------------- G----------------------------------------------------------------------------- B----------------------------------------------------------------------------- e----------------------------------------------------------------------------- C'est ma première tablature

Note cette tablature :



Connecte toi pour déposer un commentaire sur cette tablature !

Vos avis sur la tablature harry potter de cinema #3079375


caiomhe

caiomhe

le 26/12/2010 18:45:46

Ce n'est pas plutôt :

E-----0--------3-2-0---------7-10---9-8---5-8-7-6--------------3-0-------
A-0--------------------------------------------------------0-------------------
D------------------------------------------------------------------------------
G------------------------------------------------------------------------------
B------------------------------------------------------------------------------
e------------------------------------------------------------------------------

E-----3-7-------3-7----------3-10---9-8---5-8-7-6--------------3-0-------
A----------------------------------------------------------0------------------
D-----------------------------------------------------------------------------
G-----------------------------------------------------------------------------
B-----------------------------------------------------------------------------
e-----------------------------------------------------------------------------

Sinon c'est PARFAIT!!!!


monzoopk

monzoopk

le 08/05/2010 14:06:26

parfais rien dire


matruisseau

matruisseau

le 05/02/2010 19:32:45

c'est trop cool!!!!


jeff0306

jeff0306

le 31/01/2010 01:30:56

superbe tablature


Inconnu...

Inconnu...

le 29/12/2009 11:46:11

très bonne tablature merci


tablature harry potter cinema

Cette Tablature harry potter de cinema est la création ou l'interprétation personnelle de l'artiste qui l'a déposé.
Conformément aux dispositions du Code de la Propriété Intellectuelle, seule l'utilisation de cette représentation pour un usage privé, réduite au cercle de famille, et la reproduction (impression, téléchargement) pour un usage strictement personnel, sont autorisés.
Rappel : Pour se conformer aux lois sur la propriété intellectuelle, les paroles de chansons ne sont pas autorisées sur Partoch.com. Retour aux Tablatures de cinema.