CINEMA

Tablature happy birthday joyeux anniversaire

Cinema
Variétés
Ajouter à mes artistes favoris
Format : Tablature Happy birthday-joyeux anniversaire, Cinema
Version #3075045 mise en tablature par morgou
Difficulté : 2/10
Note : 3/5 sur 15 avis

Tablature Happy birthday-joyeux anniversaire, Cinema

Voila si vous trouvez des fautes dites-le moi !!!!!!!! ----------------------------------------------------------------- ----------------------------------------------------------------- ----------------------------------------------------------------- ----------------------------------------------------------------- --------------5-4---------7-5-----9-5-5-4-2-10-10-9-5-7-5-------- ------5-5-7-5-----5-5-7-5-----5-5--------------------------------

Note cette tablature :



Connecte toi pour déposer un commentaire sur cette tablature !

Vos avis sur la tablature Happy birthday-Joyeux anniversaire de cinema #3075045


nirve

nirve

le 19/04/2011 13:25:48

pas mal simple a jouer mai il y a des fausses notes dommage :/ 3/5


candybabyrock

candybabyrock

le 14/02/2011 20:57:32

Parfait :)


Inconnu...

Inconnu...

le 31/08/2010 14:44:31

je suis pas dac shouter je préfère la tab en elle meme
allez bonne gratte
5


Inconnu...

Inconnu...

le 12/07/2010 15:53:56

--------6-5--------7-5
5-5-7-5-----5-5-7-5----
Ce n'est pas plus juste pour le debut du moreceau?


jimmytom

jimmytom

le 24/06/2010 18:13:02

trop trop trop trop trop bien


Inconnu...

Inconnu...

le 16/01/2010 22:52:52

Vraiment merci je suis tres contente trop bien merci vraiment ressemblement merci merci lol juste parfaite excellent lol icon_cheesygrin


latome97

latome97

le 18/11/2009 17:41:35

c'est de la bouse tu sais pas jouer!!!!!!!!!!!!!nan je dec super cette tab


boulon9

boulon9

le 06/09/2009 14:52:48

-----------------------------------------------------------------
-----------------------------------------------------------------
-----------------------------------------------------------------
-----------------------------------------------------------------
--------------5-4---------7-5-----9-5***5***4-2-10-10-9-5-7-5--------
------5-5-7-5-----5-5-7-5-----5-5--------------------------------



-----------------------------------------------------------------
-----------------------------------------------------------------
-----------------------------------------------------------------
-----------------------------------------------------------------
--------------5-4---------7-5-----9-5-4-2***2***10-10-9-5-7-5--------
------5-5-7-5-----5-5-7-5-----5-5--------------------------------


J'ai supprimé le 5 au dessus par un 2 que j'ai mis à la fin.

Ca me semble plus juste ainsi.


walthas

walthas

le 28/07/2009 23:28:50

Exellent


Inconnu...

Inconnu...

le 27/07/2009 13:27:56

juste parfaite


tokio

tokio

le 05/07/2009 14:52:49

un peu trop grave


tablature Happy birthday-Joyeux anniversaire cinema

Cette Tablature Happy birthday-Joyeux anniversaire de cinema est la création ou l'interprétation personnelle de l'artiste qui l'a déposé.
Conformément aux dispositions du Code de la Propriété Intellectuelle, seule l'utilisation de cette représentation pour un usage privé, réduite au cercle de famille, et la reproduction (impression, téléchargement) pour un usage strictement personnel, sont autorisés.
Rappel : Pour se conformer aux lois sur la propriété intellectuelle, les paroles de chansons ne sont pas autorisées sur Partoch.com. Retour aux Tablatures de cinema.