CINEMA

Tablature dirty dancing

Cinema
Variétés
Ajouter à mes artistes favoris
Format : Tablature Dirty dancing (time of my life), Cinema
Version #3047246 mise en tablature par choupette
Difficulté : 1/10
Note : 3/5 sur 37 avis

Tablature Dirty dancing (time of my life), Cinema

c ma premiere et ce n'est qu'un petit bou ..si vous connaisser ou si vous avez la suite j'aimerai bien que vous m'envoyer un message voila merci bien sur il faut trouver le bon rithme aller bonne gratte!! --0-0-2-0---0-0-0-2-4-5-----5-5-4----------------------------------- ------------------------0-0----------------------------------------- -------------------------------------------------------------------- -------------------------------------------------------------------- -------------------------------------------------------------------- --------------------------------------------------------------------

Note cette tablature :



Connecte toi pour déposer un commentaire sur cette tablature !

Vos avis sur la tablature dirty dancing (Time of my life) de cinema #3047246


mokatchu

mokatchu

le 14/10/2013 18:48:43

Je dirais même plus : :)

----0----0----0----0-2-4-5-4-2----------5-5-4-2-0-2-0
----------------------------------------2-2-----------------
-------------------------------------------------------------
-------------------------------------------------------------
-------------------------------------------------------------
-------------------------------------------------------------
-------------------------------------------------------------


leschneider

leschneider

le 15/12/2010 16:53:37

C'est KDO icon_cheesygrin :
----0-----0-----0-----0-2-4-5-4-2-------------5-5-4-2
-------------------------------------------2-2--------
---------------------------------------------
---------------------------------------------
---------------------------------------------
---------------------------------------------


gayané

gayané

le 29/11/2009 13:23:23

j'arrive pas a trouver la rythme non plus =S


cocow78

cocow78

le 26/10/2009 19:17:46

--0-0-2-0---0-0-0-2-4-5-4-2------5-5-4-2-0-2-0-
--------------------------------------0-0----------------
-----------------------------------------------------------
-----------------------------------------------------------
-----------------------------------------------------------
-----------------------------------------------------------

Voila ! Je pense plutôt que sa serai sa ..

Bonne gratte a tous wink


ninoudu84

ninoudu84

le 11/11/2008 20:17:27

J'arrive pas a trouver le rythme c'est abuser quand même !


tablature dirty dancing (Time of my life) cinema

Cette Tablature dirty dancing (Time of my life) de cinema est la création ou l'interprétation personnelle de l'artiste qui l'a déposé.
Conformément aux dispositions du Code de la Propriété Intellectuelle, seule l'utilisation de cette représentation pour un usage privé, réduite au cercle de famille, et la reproduction (impression, téléchargement) pour un usage strictement personnel, sont autorisés.
Rappel : Pour se conformer aux lois sur la propriété intellectuelle, les paroles de chansons ne sont pas autorisées sur Partoch.com. Retour aux Tablatures de cinema.