CINEMA

Tablature adams family theme

Cinema
Variétés
Ajouter à mes artistes favoris
Format : Tablature Adams family theme, Cinema
Version #2808198 mise en tablature par l5
Difficulté : 4/10
Note : 2/5 sur 21 avis

Tablature Adams family theme, Cinema

This is from memory, use at your own risk. snap snap snap snap ------------------------------------------------------------ ---------------2--3----------------------4--5--------------- ---------3--5----------------------5--7--------------------- ------------------------------------------------------------ ------------------------------------------------------------ ------------------------------------------------------------ snap snap ------------------------------------------------------------ ---------------4--5----------4--5--------2--3--------------- ---------5--7----------5--7--------3--5--------------------- ------------------------------------------------------------ ------------------------------------------------------------ ------------------------------------------------------------ Richard A. Griffiths ...uunet!ingr!b11!xanth!richard (UUCP) Intergraph Corp. richard@b11.ingr.com (Internet)

Note cette tablature :

Les 2 autres tabs ou listes d'accords pour ce titre :

  • Pour Guitare :
  • Tablature Addams Family Theme par arnolabour
  • Pour Basse :
  • Tablature Addams Family Theme
  • << Retour aux tablatures de cinema

    Le Violon Fait Son Cinéma Volume 1

    Le Violon fait son Cinéma Volume 1
    Type : Partition
    Edition Lemoine

    24,40 €



    Connecte toi pour déposer un commentaire sur cette tablature !

    Vos avis sur la tablature Adams Family Theme de cinema #2808198


    nino25102

    nino25102

    le 03/06/2012 17:41:56

    lovelykiller à la bonne tab. c'est ce qu'il a mit :

    ------------------------------------------------------------
    ---------------3--4----------------------5--6---------------
    ---------3--5----------------------5--7---------------------
    ------------------------------------------------------------
    ------------------------------------------------------------
    ------------------------------------------------------------

    ------------------------------------------------------------
    ---------------5--6----------5--6--------3--4---------------
    ---------5--7----------5--7--------3--5---------------------
    ------------------------------------------------------------
    ------------------------------------------------------------
    ------------------------------------------------------------




    guigui48

    guigui48

    le 26/09/2010 11:24:34

    bof


    Inconnu...

    Inconnu...

    le 30/05/2010 19:09:51

    on reconnait un peu mieux en la jouant sur les cordes de la et ré


    Inconnu...

    Inconnu...

    le 13/03/2010 13:49:40

    bof bof


    jz

    jz

    le 09/08/2009 19:33:56

    c'est pas sa tu t gouré


    Inconnu...

    Inconnu...

    le 06/08/2009 22:50:18

    Essaye plutot ça (je pense que tu t'es trompé d'une case):
    ------------------------------------------------------------
    ---------------3--4----------------------5--6---------------
    ---------3--5----------------------5--7---------------------
    ------------------------------------------------------------
    ------------------------------------------------------------
    ------------------------------------------------------------

    ------------------------------------------------------------
    ---------------5--6----------5--6--------3--4---------------
    ---------5--7----------5--7--------3--5---------------------
    ------------------------------------------------------------
    ------------------------------------------------------------
    ------------------------------------------------------------


    augera

    augera

    le 23/06/2009 17:12:36

    je reconnais pas la chanson en la jouant désolé


    Inconnu...

    Inconnu...

    le 22/03/2009 09:54:42

    tres bof


    pepettedu62100francecalais

    pepettedu62100francecalais

    le 04/01/2009 18:06:58

    pas terrible je reconnais pas désolé


    metfan46

    metfan46

    le 20/11/2008 15:39:37

    re re bof Mouhahaha


    Inconnu...

    Inconnu...

    le 18/06/2008 18:24:33

    re bof


    Inconnu...

    Inconnu...

    le 14/05/2008 16:33:06

    bof


    tablature Adams Family Theme cinema

    Cette Tablature Adams Family Theme de cinema est la création ou l'interprétation personnelle de l'artiste qui l'a déposé.
    Conformément aux dispositions du Code de la Propriété Intellectuelle, seule l'utilisation de cette représentation pour un usage privé, réduite au cercle de famille, et la reproduction (impression, téléchargement) pour un usage strictement personnel, sont autorisés.
    Rappel : Pour se conformer aux lois sur la propriété intellectuelle, les paroles de chansons ne sont pas autorisées sur Partoch.com. Retour aux Tablatures de cinema.