BLUR

Tablature song 2

Blur
Pop/Rock
Ajouter à mes artistes favoris
Format : Tablature Song 2, Blur
Version #3061458 mise en tablature par pamplemousse7
Difficulté : 1/10
Note : 4/5 sur 1 avis

Tablature Song 2, Blur

-------------------------------------------------------------------------- -------------------------------------------------------------------------- ----9-------7--------5-----------7-----------9---------------------------- ----9-------7--------5-----------7-----------9---------------------------- ----9-x3----7-x3-----5--x2-------7-x1--------9---x1----------------------- moi je l'ai fait a la guitare classique et je trouve que sa sonne bien


Aide la communauté à toujours proposer les meilleures tabs en premier : cette tab n'a pas encore reçu assez de votes !
Clique sur les étoiles ci-dessous pour donner ton avis sur sa qualité.
Note cette tablature :



Connecte toi pour déposer un commentaire sur cette tablature !

Vos avis sur la tablature song 2 de blur #3061458


maximini

maximini

le 31/05/2010 21:02:32

4/5 car ce serait plutot:

intro---------------------------------------------------------------------
--------------------------------------------------------------------------
--------------------------------------------------------------------------
--------------------------------------------------------------------------
-----9-9-----7-7-----5-5-----7-----9--------------------------------------
-----9-9-----7-7-----5-5-----7-----9-------------------------------------- X 2

whiiiiioooooouuuuu:
--------------------------------------------------------------------------
--------------------------------------------------------------------------
--------------------------------------------------------------------------
-----9-9-----7-7-----5-5-----7-----9--------------------------------------
-----9-9-----7-7-----5-5-----7-----9--------------------------------------
-----9-9-----7-7-----5-5-----7-----9--------------------------------------x 3
puis re-intro pendant le couplet

voila après je c'est pas pour le refrain donc si vous avez le refrain envoyez le moi ^^ merci wobble


VIVE BLUR ^^


The Great Songs Of Blur Chord Songbook

The Great Songs of Blur Chord Songbook
Type : Partition
Edition Amscowyse

22,60 €

tablature song 2 blur

Cette Tablature song 2 de blur est la création ou l'interprétation personnelle de l'artiste qui l'a déposé.
Conformément aux dispositions du Code de la Propriété Intellectuelle, seule l'utilisation de cette représentation pour un usage privé, réduite au cercle de famille, et la reproduction (impression, téléchargement) pour un usage strictement personnel, sont autorisés.
Rappel : Pour se conformer aux lois sur la propriété intellectuelle, les paroles de chansons ne sont pas autorisées sur Partoch.com. Retour aux Tablatures de blur.