BLACK SABBATH

Tablature paranoid

Black Sabbath
Métal
Ajouter à mes artistes favoris
Format : Tablature Paranoid, Black sabbath
Version #3041668 mise en tablature par benjguit
Difficulté : 4/10
Note : 2/5 sur 16 avis

Tablature Paranoid, Black sabbath

Intro : ---------------------------------------------- ---------------------------------------------- ---------------------------------------------- 14--14--14--------12-14-------12-14----------- 14--14--14--12-14-------12-14----------------- 12--12--12------------------------------------ (4 fois) Couplet -------------------------------------------------------------- -------------------------------------------------------------- --------------------------------------------------12---------- -14-14-14-14-14-14-14-14-12-12-12-12-12-12-12-12--12--12--14-- -14-14-14-14-14-14-14-14-12-12-12-12-12-12-12-12--10--12--14-- -12-12-12-12-12-12-12-12-10-10-10-10-10-10-10-10------10--12--- (2 fois) -------------------------------- -------------------------------- -------------------------------- --14-14-10-----12----14------- --14-14-10-----12----14------- --12-12-8------10----12------ Voila je pense que c'est ça pour les accords. N'hésitez pas à indiquer si il y a des fautes ou si vous avez trouvé le solo.

Note cette tablature :



Connecte toi pour déposer un commentaire sur cette tablature !

Vos avis sur la tablature Paranoid de black sabbath #3041668


117flo

117flo

le 21/04/2009 21:03:17

pour le debut il me semble que c'est plus sur les cordes basses mais super tab quand meme.


luc du87

le 27/02/2008 13:55:42

c'est juste mais si quelqun a le solo j'arrive pas a repiquer la fin


a-lex

a-lex

le 13/01/2008 14:45:44

-------------------------------------
-------------------------------------
---------------------5--------------
--9--9--9--9---5-5-5-7-5--9--------X4
--7--7--7--7---7-7-7---7---7--------
-------------------------------------
c'est pas plutôt ça? oO


Inconnu...

Inconnu...

le 08/01/2008 20:04:27

bonne tablature merci elle est comment diraige ... geniale oui en 1 mot merci c'est ça j'ai mit 5sur 5 car c'est le max qu'on peut mettre merci


Inconnu...

Inconnu...

le 25/12/2007 22:47:06

cimer trop mon kado de noel ^^


Inconnu...

Inconnu...

le 19/08/2007 09:57:05

elle déchire la tabl !


titi des iles

titi des iles

le 03/07/2007 20:17:59

moi aussi j'aimerai bien connaitre le solo plz


Inconnu...

Inconnu...

le 24/04/2007 22:33:38

yes cest parfais pi si une manner ta le solo jaimerais que tu me lenvoye


Inconnu...

Inconnu...

le 23/11/2006 21:54:44

J'avais l'impression que ça fesait plus ça moi^^

----------------------------------------------
----------------------------------------------
----------------------------------------------
14--14--14--------12-14-------12-14----------- x4
14--14--14--12-14-------12-14-----------------
12--12--12------------------------------------


---------------------------------------------------------------------
---------------------------------------------------------------------
--------------------------------------------------12----------14-----
-14-14-14-14-14-14-14-14-12-12-12-12-12-12-12-12--12--12--14--14--14- X2
-14-14-14-14-14-14-14-14-12-12-12-12-12-12-12-12--10--12--14--12--14-
-12-12-12-12-12-12-12-12-10-10-10-10-10-10-10-10------10--12------12-

-----------------------------
-----------------------------
-----------------------------
--14-14-10-----12----14------ X1
--14-14-10-----12----14------
--12-12-8------10----12------


Après bien sûr on peut le faire comme l'a indiqué hezee^^


Au fait metal_13, si par hasard tu vois mon message, le solo m'interesse ^^"


hezee

hezee

le 22/11/2006 07:32:40

Tu te complique la vie a la jouer case 14! ça donne la même chose avec ca:

-------------------------------------
-------------------------------------
---------------------7-9-------7-----
--9--9--9--9---7-9------7-9---7------- X4
--7--7--7--7-------------------------
-------------------------------------

puis apres tu peut faire la suite sur les même cases mais la j'ai la flemme de l'écrire^^


hezee

hezee

le 22/11/2006 07:32:16

Tu te complique la vie a la jouer case 14! ça donne la même chose avec ca:

-------------------------------------
-------------------------------------
---------------------7-9-------7-----
--9--9--9--9---7-9------7-9---7------- X4
--7--7--7--7-------------------------
-------------------------------------

puis apres tu peut faire la suite sur les même cases mais la j'ai la flemme de l'écrire^^


Inconnu...

Inconnu...

le 04/10/2006 23:13:04

super!!!


Inconnu...

Inconnu...

le 06/05/2006 04:14:59

ben jai le solo mais je sais pas comment lecrire kk un px me le dire?


tablature Paranoid black sabbath

Cette Tablature Paranoid de black sabbath est la création ou l'interprétation personnelle de l'artiste qui l'a déposé.
Conformément aux dispositions du Code de la Propriété Intellectuelle, seule l'utilisation de cette représentation pour un usage privé, réduite au cercle de famille, et la reproduction (impression, téléchargement) pour un usage strictement personnel, sont autorisés.
Rappel : Pour se conformer aux lois sur la propriété intellectuelle, les paroles de chansons ne sont pas autorisées sur Partoch.com. Retour aux Tablatures de black sabbath.