ATREYU

Tablature rigth side of the bed

Atreyu
Ajouter à mes artistes favoris
Format : Tablature Rigth side of the bed, Atreyu
Version #3054281 mise en tablature par denver147
Difficulté : 3/10
Note : 1/5 sur 5 avis

Tablature Rigth side of the bed, Atreyu

---------------------------------------------------- ---------------------------------------------------- ---------------------------------------------------- (intro) ---------------------------------------------------- -3-1--6-66-1-11--3-1--6-66--6-66--3-1--6-66--1-11-3- (2x se morceau pour l intro) -3-1--4-44-1-11--3-1--6-66--4-44--3-1--4-44--1-11-3- ----------------------- ----------------------- ----------------------- (pendant couplets) ----------------------- -3----3-3x3-6-66-1-11-3- (plusieurs fois) -3----3-3x3-4-44-1-11-3-

Note cette tablature :



Connecte toi pour déposer un commentaire sur cette tablature !

Vos avis sur la tablature Rigth side of the bed de atreyu #3054281


Inconnu...

Inconnu...

le 29/05/2011 15:38:00

C'est pas du tout ça !!


jack sparow

jack sparow

le 29/03/2008 13:40:56

change ta tab ^^ c'est pas la bonne song


nicoars82

nicoars82

le 06/03/2008 21:07:48

t raison zigzague ça doit pas etre la bonne chanson, ça ressemble po au debut...

Intro
D|---------------------------------------------------|
A|------6-5-----------------6-5----------------------|
F|------5-5-----------------5-5--10-10---------------|
C|-0000-3-3--3-3-5-5-5-0000-3-3--10-10--88-----------|
G|-0000------1-1-3-3-3-0000-------8-8---88-----------|
C|-0000----0-----------0000-----0-------88-----------|


D|---------------------------------------------------------------|
A|------6-5------------------------------------------------------|
F|------5-5------------------------------*-----------------------|
C|-0000-3-3---3-3-5-5-----0----2---3-2-0-3v---2---3-2-0----------|
G|-0000-------1-1-3-3-----0--0---0----------0---0----------------|
C|-0000----0--------------0--------------------------------------|



Inconnu...

Inconnu...

le 12/08/2007 16:44:44

t'est sur que c'est la bonne chanson ?? -_-


tablature Rigth side of the bed atreyu

Cette Tablature Rigth side of the bed de atreyu est la création ou l'interprétation personnelle de l'artiste qui l'a déposé.
Conformément aux dispositions du Code de la Propriété Intellectuelle, seule l'utilisation de cette représentation pour un usage privé, réduite au cercle de famille, et la reproduction (impression, téléchargement) pour un usage strictement personnel, sont autorisés.
Rappel : Pour se conformer aux lois sur la propriété intellectuelle, les paroles de chansons ne sont pas autorisées sur Partoch.com. Retour aux Tablatures de atreyu.