ARPEGE

Tablature arp

Arpege
Ajouter à mes artistes favoris
Format : Tablature Arpège, Arpege
Version #3035172 mise en tablature par gouzie
Difficulté : 2/10
Note : 3/5 sur 15 avis

Tablature Arpège, Arpege

Alors je suis toute débutante, j'avais un air dans la tête... mais malheureusement je n'ai qu'un malheureux début, si quelqu'un pouvait me donner une suite... je lui en serais très reconnaissante ! |--------0-------0-------0---------0--------- |--------1-------1-------1---------0--------- |-----0--------0------2----------1----------- |-------------------------------------------- |---3--------2------0---------2-------------- |-------------------------------------------- c'est extrèment facil, mais personne n'a dit que les choses simples étaient moches !! svp help ! gwana

Note cette tablature :



Connecte toi pour déposer un commentaire sur cette tablature !

Vos avis sur la tablature arpège de arpege #3035172


intheclouds

intheclouds

le 29/11/2010 17:04:23

si tu veux tu peut continuer par un fa puis un sol, tjr sur le mm "rythme"
j'aime bien c'est un bon début =)

(sa donne :
0 1 3
0 1 3
0 2 0
0
3 2
0


intheclouds

intheclouds

le 29/11/2010 17:03:57

si tu veux tu peut continuer par un fa puis un sol, tjr sur le mm "rythme"
j'aime bien c'est un bon début =)

(sa donne :
0 1 3
0 1 3
0 2 0
0
3 2
0


Inconnu...

Inconnu...

le 07/08/2010 19:44:37

salut il y a jeux interdit pour bien débuté l'arpège car moi même qui apprend tout seul j'y arrive très bien tenez =) : jeux interdit
E||---7--------7--------7--------|--7--------5--------3--------|
B||------0--------0--------0-----|-----0--------0--------0-----|
G||*--------0--------0--------0--|--------0--------0--------0--|
D||*-----------------------------|-----------------------------|
A||------------------------------|-----------------------------|
E||---0--------------------------|--0--------------------------|



--3--------2--------0--------|--0--------3--------7--------|
-----0--------0--------0-----|-----0--------0--------0-----|
--------0--------0--------0--|--------0--------0--------0--|
-----------------------------|-----------------------------|
-----------------------------|-----------------------------|
--0--------------------------|--0--------------------------|



--12--------12--------12--------|--12--------10--------8--------|
------0---------0---------0-----|------0---------0--------0-----|
---------0---------0---------0--|---------0---------0--------0--|
--------------------------------|-------------------------------|
--------------------------------|-------------------------------|
--0-----------------------------|--0----------------------------|



--8--------7--------5--------|--5--------7--------8--------|
-----5--------5--------5-----|-----5--------5--------5-----|
--------5--------5--------5--|--------5--------5--------5--|
-----------------------------|-----------------------------|
--0--------------------------|--0--------------------------|
-----------------------------|-----------------------------|


sunak1$

sunak1$

le 28/10/2009 20:25:33

désoler sa a décaler tout quand jai envoyer :s


sunak1$

sunak1$

le 28/10/2009 20:23:53

euh sa ressemble a "le sud"
|--------0-----0--------0----------0----------------------------0-----------------
|--------1-----1--------0----------0----------1--------1--------1-----------------
|-----0----------0-----2-2----------2------0h2-2----0h2-3-----0------------0------
|-----------------------------------------------------------------------0h2-------
|---3------3-2-----2-0--------------------------------------3--------0h3----3-----
|-------------------------------3------3-2--------1-----------------3-------------

voila j'espère avoir répondu a ta question wink


Inconnu...

Inconnu...

le 17/04/2009 12:27:37

Pas mal j'aime bien !!


Inconnu...

Inconnu...

le 10/06/2006 11:26:32

|--------0-------0-------0----------0-------0---------2--------1-----------
|--------1-------1-------1----------1-------2---------3--------1-----------
|-----0--------0------2-----------0-------2--------2--------2--------------
|--------------------------------------2--------0--------3-----------------
|---3--------2------0----------3-------------------------------------------
|--------------------------------------------------------------------------

voilà une suite, j'ai supprimé le 4ème accord, il sonnait faux dans la mélodie...


Inconnu...

Inconnu...

le 17/05/2006 17:33:57

j'adore c'est super ta tablature


raouf

raouf

le 22/01/2006 13:49:04

c'est vrai, c'est pas moch et facile wobble


tablature arpège arpege

Cette Tablature arpège de arpege est la création ou l'interprétation personnelle de l'artiste qui l'a déposé.
Conformément aux dispositions du Code de la Propriété Intellectuelle, seule l'utilisation de cette représentation pour un usage privé, réduite au cercle de famille, et la reproduction (impression, téléchargement) pour un usage strictement personnel, sont autorisés.
Rappel : Pour se conformer aux lois sur la propriété intellectuelle, les paroles de chansons ne sont pas autorisées sur Partoch.com. Retour aux Tablatures de arpege.