AEROSMITH

Tablature road runner

Aerosmith
Pop/Rock
Ajouter à mes artistes favoris
Format : Tablature Road runner, Aerosmith
Version #3055566 mise en tablature par ramzus
Difficulté : 2/10
Note : 2/5 sur 3 avis

Tablature Road runner, Aerosmith

Sur la deuxième corde en partant du haut : -------------------------------------- -------------------------------------- -------------------------------------- -------------------------------------- 0-0-4-4-7-7-9-7-0-0-4-4-7-7-9-7-0----- x 2 -------------------------------------- Puis tout de suite après (sur la troisième en partant du haut) : -------------------------------------- -------------------------------------- -------------------------------------- 0-0-4-4-7-7-9-7-0--------------------- x 2 -------------------------------------- -------------------------------------- Et ensuite on repasse à la corde numéro 2 et ainsi de suite... Voilà c'est ma première tab. Vous allez voir c'est un air super connu... dailleurs quelqu'un pourrait svp déposer le même air mais sous une forme plus sophistiquée ds la même rubrique -Aerosmith -- Road Runner ?

Note cette tablature :



Connecte toi pour déposer un commentaire sur cette tablature !

Vos avis sur la tablature Road Runner de aerosmith #3055566


aurelient1

aurelient1

le 06/01/2011 13:45:40

Presque, mais c'est pas ça ^^
Le son est beaucoup plus grave que ça, perso je le joue comme tu le trouves partout, y compris dans le making of de Honkin On Bobo dans le DVD You Gotta Move :

----------------
----------------
----------------
----------------
--------2-2-4-2-
0-0-3-4---------

Puis :

----------------
----------------
----------------
--------2-2-4-2-
0-0-3-4---------
----------------


crimien

crimien

le 13/12/2009 15:23:43

je connais un petit truc si tu veux, j'ai pas le nom par contre...
-------------------------------------------------------------------------------------
-------------------------------------------------------------------------------------
-------------------------------------------------------------------------------------
-------------------------------------4--4--2--2-------2-----2--------2---------------
--------4--4--2--2-------2-----0--0--------------3/4-----4-----4--3-----3--2---------
-0--0---------------3/4-----0--------------------------------------------------------


Road Runner

Album : Honkin' on Bobo

plus de tablatures de cet albumVoir cet album

Big Ones (partition)

Big Ones (Partition)
Type : Partition
Edition HAL

26,00 €

tablature Road Runner aerosmith

Cette Tablature Road Runner de aerosmith est la création ou l'interprétation personnelle de l'artiste qui l'a déposé.
Conformément aux dispositions du Code de la Propriété Intellectuelle, seule l'utilisation de cette représentation pour un usage privé, réduite au cercle de famille, et la reproduction (impression, téléchargement) pour un usage strictement personnel, sont autorisés.
Rappel : Pour se conformer aux lois sur la propriété intellectuelle, les paroles de chansons ne sont pas autorisées sur Partoch.com. Retour aux Tablatures de aerosmith.