ACDC

Tablature black in black

Acdc
Pop/Rock
Ajouter à mes artistes favoris
Format : Tablature Black in black, Acdc
Version #3068646 mise en tablature par alext
Difficulté : 1/10
Note : 1/5 sur 16 avis

Tablature Black in black, Acdc

x3 -----0----2-2-2---------3-0------------ -----0----3-3-3----2----------3-0------ -----1----3-3-3----2----------------2-0 -----2-------------2------------------- -----2--------------------------------- -----0---------------------------------

Note cette tablature :



Connecte toi pour déposer un commentaire sur cette tablature !

Vos avis sur la tablature black in black de acdc #3068646


vulloy

vulloy

le 12/05/2010 15:37:54

moi chui un peu dl'avis d'tt l'monde paske sik a raison moi aussi ça me ferais chier mais chui d'accord avec les autres en disant que cette tab est fausse


bobyac/dc

bobyac/dc

le 21/02/2010 20:03:40

il c'est gourré le mec c'est pas exactement sa
en verité c'est:

----------------------------3-0------------|
-----3-3-3----------------------3-0--------|
-----2-2-2--2-2-2------------------2b-0----|
--2--0-0-0--2-2-2--------------------------|
--2---------0-0-0--------------------------|
--0----------------------------------------|

-------------------------------------------|
-----3-3-3---------------------------------|
-----2-2-2--2-2-2--------------------------|
--2--0-0-0--2-2-2--------------------------|
--2---------0-0-0----2---2-0-2-1-2-2-------|
--0--------------------4-------------------|


sik666

sik666

le 14/11/2009 23:43:38

Squajis, tu pourrais quand même être plus sympa en parlant d'une tab, ça m'aurait fais chier si c'était ma tab puis franchement, ta tab à toi n'est pas mieux, les notes sont même pas en face! Ta tab est nulle!


b-boyfire

b-boyfire

le 18/08/2009 15:52:10

Certes ce n'est pas une tab de black in black mais bon c'est bien d'essayer ... :s


Inconnu...

Inconnu...

le 16/02/2009 18:50:13

ce n'est vraiment pas du tout


milouneduchambon/lignon

milouneduchambon/lignon

le 24/01/2009 19:12:58

eu le début c'est ça mai pas la fin


jujufandesredhot

jujufandesredhot

le 16/01/2009 18:49:30

du grand n'importe quoi


Play Guitar With... Ac/dc (partition+cd)

Play Guitar With... AC/DC (Partition+CD)
Type : Partition
Edition Amscowyse

26,10 €

tablature black in black acdc

Cette Tablature black in black de acdc est la création ou l'interprétation personnelle de l'artiste qui l'a déposé.
Conformément aux dispositions du Code de la Propriété Intellectuelle, seule l'utilisation de cette représentation pour un usage privé, réduite au cercle de famille, et la reproduction (impression, téléchargement) pour un usage strictement personnel, sont autorisés.
Rappel : Pour se conformer aux lois sur la propriété intellectuelle, les paroles de chansons ne sont pas autorisées sur Partoch.com. Retour aux Tablatures de acdc.