Tab Come As You Are


nouveau message Répondre
Recherche

#
Il y a beaucoup de tablature en acoustique de Come As You Are quisont toutes différentes.
Pouvez-vous m'en conseiller une s'il vous plait.
merci d'avance.

Bonne gratte smiley-guitar



#
Celle là est bien:
-----------------------------------------------------------------
-----------------------------------------------------------------
-----------------------------------------------------------------
-----------------------------------------------------------------
-----------0----0-----------2------------------------------------
-0-0-1-2----2----2-2-1-0----0------------------------------------

#
Pour la tablature je ne note que les deux cordes les plus grave

--0-0-1-2-2-2-2-1-0-0-0--
---------0-0--------2---2 smiley-guitar bonne grate


 Citation :


#
Met plutôt ça dans la rubrique "tablature", sinon c'est la 1ère tab qui est bonne, dans l'autre il y a une erreur de sens ...

#
quelqu'un aurait une tablature de "come as you are" pour basse ?

#
Mauvais forum... et puis pense a faire des recherche avant de faire un post wink
http://www.partoch.com/artistes/tablature,NIRVANA,COME+AS+YOU+ARE,3033391.html

#
grunge-not-dead
grunge-not-dead a écrit :
quelqu'un aurait une tablature de "come as you are" pour basse ?


c'est la même que pour la guitare sauf que on le fai sur les cases 5 à 7 sur les cordes du milieu:

--------------------------------------
------------5---5--------7----7-------
----5-5-6-7---7--7-7-6-5--5-5---5-----
--------------------------------------

sugar mountain

3 photos
#
lucas17 a écrit :
Celle là est bien:
-----------------------------------------------------------------
-----------------------------------------------------------------
-----------------------------------------------------------------
-----------------------------------------------------------------
-----------0----0-----------2------------------------------------
-0-0-1-2----2----2-2-1-0----0------------------------------------



sûr que c'est celle là qui est bonne sachant qu'il faut s'accorder un 1/2 ton plus bas

"A dream you dream alone is only a dream. A dream you dream together is reality" john Lennon
#
Mercii pour le coup d'main razz

roadtohell

2 photos
#
perso j' utilise la tab qui a été donnée précedemment mais accordé un ton en dessous(drop d)d g c f a d, je trouve que ça ressemble plus et que ça donne mieux

I' m BACK IN BLACK with the T.N.T on the HIGHWAY TO HELL !!!!!!!!!!!!!!!!!!] violent2 violent2 violent2 violent2
sugar mountain

3 photos
#
Si tu arrives à la chanter avec un ton en dessous smile_cool

la culture c'est celle qui reste quand on a tout oublié
#
merci bcp pour cette tab' !! il me manquait plus que celle la pr completer ma collec'

#
Es-ce-que il y-a une suite ou pas?
icon_cheesygrin smiley-guitar

#
Bonjour,
est ce que quelqu'un aurait une tab de come as you are avec basse + acoustique, jai pas mal cherché mais j'ai pas trouvé

#
non la premiere tab qui a ete donne est parfaite



nouveau message Répondre Recherche



Autre liens sur le site pour Nirvana : Discographie Nirvana - Tee Shirt Nirvana - Poster Nirvana
plan Plan du Forum Fans||Tags : are, you, come, acoustique, tablature, beaucoup, NIRVANA, tab, quisont