Hammer ons et Pull offs


nouveau message Répondre
Recherche

#
C'est quoi les hammer ons et pull offs ???? @+++ smiley-guitar



#
Bonjour !


Ce sont des "techniques" de jeu qui permettent de jouer une note en utilisant seulement la main gauche,en jouant sur la "résonnance" de la corde.


Cela est expliqué dans le tutorial pour lire un tab dans la rubrique "Débutant" : http://www.partoch.com/debutant/article_8.html



 Citation :
2.2 Hammer ons et Pull offs

Avec les hammer ons et les pull offs, vous rencontrerez des tablatures comme suit:


E --------------------------------------------------
B --------------------------------------------------
G --------------------------------------------------
D --------------------------------------------------
A-------------5h7------------5h7--------------------
E ---0----0----------0----0-------------------------


Ce qui signifie jouez le Mi à vide deux fois, puis jouez le La à la 5è frette, et martelez la 7è frette.

Les Pull offs ressemble beaucoup:


E -------3p0----------------------------------------
B -------------3p0----------------------------------
G -----------------2p0------------------------------
D -----------------------2--------------------------
A --------------------------------------------------
E --------------------------------------------------


Ici, nous avons une gamme de blues qui utilise des pull offs. Pour chacun d' entre eux, vous pincez seulement la première note de la paire avec la main droite.
Dans cet exemple, vous pinceriez toutes les notes sur les 3è et 2nde frette, et les cordes à vide sonneraient en pull offs.
Parce que vous donnez un peu plus de puissance à la corde quand vous faites ces effets, vous avez seulement besoin de jouer la 1ère note avec la main qui fait le picking.
Vous pourriez même trouver des pull offs et des hammer ons sur la même corde, comme suit:


E -----------------------------------------------------------
B -----------------------------------------------------------
G ---2-h-4-p-2-h-4-p-2-h-4-p-2-h-4-p-2-h-4-p-2---------------
D -----------------------------------------------------------
A -----------------------------------------------------------
E -----------------------------------------------------------


Dans ce cas, vous pincez seulement la 1ère note.
Rq: Vous trouverez peut-être d' autres symboles pour représenter des hammer ons et des pull offs, par exemple ^ peut être utilisé pour ces effets.

Ex: Sol -----2^4^2----------------------

Ce qui voudrait dire "jouez la note sur la 2nde frette, martelez sur la 4è, puis tirez sur la 2nde; Ce serait plus simple si tout le monde utilisait les mêmes symboles.
Mais à moins que ces symboles vous posent un gros problèmes, utilisez les.
Dans tous les cas, quand vous écrirez une tab, mettez une légende, comme ça, si vos symboles ne sont pas conventionnels, on comprendra ce qu' ils veulent dire.


#
oué voila comme le dit le monsieur que dire de plus ? ? ? ? ? ? ? ? ? ? ?

#
Ouai mais en faite j'ai pas compris le truc de Partoch.com sad lol

#
 Citation :
Un pull up consiste à relâcher le doigt qui appuie sur la case après avoir frotté la corde.
Un hammer on consiste à appuyer sur une case différente après avoir frotté la corde.

Par exemple:

e-|-------------------------------------|
B-|-------------------------------------|
G-|-------------------------------------|
D-|-------------------------------------|
A-|-----3h5p3---------------------------|
E-|-------------------------------------|

On frotte la corde a en appuyant sur la case 3 avec un premier doigt, puis on appuie sur la case 5 avec un 2nd doigt, puis l'on lève le 2nd doigt (placé sur la case 5) afin de faire 'sonner' la corde successivement avec les cases 3, 5 et enfin 3. La corde ne doit être frottée qu'une seule fois au départ, non pas à chaque changement de case comme l'on serait tenté de le faire.




Issu du didacticile guitare de Musikmania : http://www.musikmania.net/tab/tutorial.php

En espérant que ça t'aide mieux...

#
Oui ca m'aide mieux lol merci !!!! chanteur

#
amuse toi


2x

-5h7p5h8p5-----------------------------
-----------------5h7p5h8p5---------------
---------------------------------5h7p5h8p5-
---------------------------------------
---------------------------------------
---------------------------------------

---------------------------------5h7p5h8p5-
-----------------5h7p5h8p5---------------
-5h7p5h8p5-----------------------------
---------------------------------------
---------------------------------------
---------------------------------------


nouveau message Répondre Recherche


plan Plan du Forum Débutants||Tags : hammer, ons, pull, offs, les