Recherche de quelques tablatures .. pour débutante!


nouveau message Répondre
Recherche

#
Salut tout le monde!
je suis débutante en guitare (sèche) et il y a quelques tabs que je n'arrive pas à trouver (ou plutôt qui ne me paraissent pas très fiables quand je les trouve!)
donc je vous mets quelques titres en vrac au cas où quelqu'un en aurait des correctes et pas trop dures à jouer ! (je ne connais que les accords de base.. donc tous les trucs un peu trop complexes ou trop rapides c'est pas encore de mon niveau!)

- Asa - Jailer et 360°
- The Kooks - Gap, Mr Maker, Naive
- The Cure - Just Like Heaven
- Razorlight - Hostage of Love
- Chris Isaak - Please

..et si vous en avez d'autres à me proposer, pourquoi pas!

Merci beaucoup!

Anaïs



#
ça ne répondra peut-être pas à tes attentes mais ça pourra toujours t'aider wink :

- http://www.partoch.com/cours/

- http://www.partoch.com/forum/post_171376,quelques+morceaux+pour+debuter+guitare....

#
pour les cours en ligne, même si ils sont très bien faits j'ai un peu du mal à accrocher, je préfère apprendre un peu à l'arrache ^^
par contre la liste de chansons faciles me plait bien, je viens de prendre quelques petites notes sur celles que je préfère et je vais travailler tout ça !
merci beaucoup wink


.. mais si quelqu'un connait les tabs des chansons ci dessus, ma demande tient toujours! icon_cheesygrin

#
up !

je rajoute d'ailleurs : Ayo- I'm not afraid (sur l'album Gravity at Last)

merci! icon_cheesygrin

bad-boysgreg

9 photos
#
Hmmmm tu as tapé une recherche dans le site? Sinon y a guitar pro que je trouve assez fiable et a portée de tous..

rankxerox

Hyper Tabber
Petit Downloader
1 message
#
Salut

Certains de tes choix sont un niveau un peu difficile si tu débutes.
je te propose les accords des intros (qui parfois font l'ensemble de la chanson)

Cap
The Kooks
TablEdited by RankXerox
| | | | | | | |
|10h-13h-10------5---------------|--------10----------------------|
|11--11--11------7---------------|----10----------10--------------|
|10--10--10------7---------------|------------11------------------|
|12--12--12------7---------------|--------------------------------|
|10--10--10------5---------------|--------------------------------|
|10--10--10------5---------------|10------------------------------|

| | | |
|6-------8-------10--------------|
|8-------10------11--------------|
|8-------10------10--------------|
|8-------10------12--------------|
|6-------8-------10--------------|
|6-------8-------10--------------|

c'est l'intro ... que des barrés ...



Please
Chris Isaak
TablEdited by RankXerox

| | | | | | | |
|--------------------------------|--------------------------------|
|------------6-------------------|------------2-------------------|
|----6---------------6-----------|----2---------------2-----------|
|--------6---------------6-------|--------2---------------2-------|
|4---------------------------4---|0---------------------------0---|
|--------------------------------|--------------------------------|

| | | | | | | |
|--------------------------------|--------------------------------|
|------------0-------------------|------------0-------------------|
|----3---------------3-----------|----3---------------3-----------|
|--------4---------------4-------|--------4---------------4-------|
|----------------------------4---|--------------------------------|
|2-------------------------------|2---------------------------2---|

Celle-là devrait t'aller... avec des barrés...
C# A F# F#




Mr Maker
The Kooks

C Am Em G ..... Am
Dm G C Em Am Dm G C Em Am Dm G

Ca devrait aller aussi




Hostage Of Love
Razorlight

Em : 022000
Eadd9 : 202000
G : 320000
C : 332010
D : 000232

Simple pour commencer




Jailer
Asa

Am : 577555
Dm7 : 557565
Cm : 81010888
G : 355433

... que des barrés et bonne rythmique !




360
Asa
Capo III

G : 320003
D7 : 200230
Em : 022000
C : 032010

Accords simples sur celle-ci, voir la rythmique...


Je te laisse avec ces quelques plans. Tu trouveras facilement des infos pour lire les tabs, et pour caler les paroles sur les partoches bump

Bon courage

RX
#
merci beaucoup, j'vais essayer de bosser tout ça!
pour lire les tabs et caler les paroles ça passe bien en général, c'est plus le côté purement guitaristique qui pose problème icon_cheesygrin
Enfin je cherche pas à faire quelque chose de parfait donc c'est pas grave!
encore merci ..
Anaïs


nouveau message Répondre Recherche


plan Plan du Forum Tablatures||Tags : trop, les, quelques, debutante, donc, vrac, titres, cas, mets