recherche nom d'une musique :)


nouveau message Répondre
Recherche

#
voila je voudrais savoir le nom de cette musique car je ne m'en rappelle plus !:s ca fait :

---------------------------------
---0----0----0---0---------------0-----
--0-0-0-0-0-0-0-0-----0----2--2----
-2---1----0----3-------2--2-1------- et on reprend du début
-----------------------3------------
-------------------------------



#
Ca ressemble a rien que je connaisse chez moi sorry

#
Ouai je connais pas non plus sad

aurelien5

Petit Downloader
#
sa me dit quelque chose mais je sais plus quoi

---------------------------------
---0---0-----0---0---------0-----
--0-0-0-0-0-0-0-0---0---2-2----
-2---1----0----3-------2-2-1-------
-----------------------3------------
-------------------------------


#
Hello,

Pour moi ca ressemble à "A la faveur de l'automne" de Tété icon_redface

#
Je suis dans le meme cas pour toi avec celle ci:

(Intro)
------------------------------------
------------------------------------
------------------------------------
--------------2--2-3----------------
--2--2-3------0--0-0------2--2-3----
--0--0-0------------------0--0-0----

#
ui c'est ca!! merci beaucoup :)

#
euh ca me di rien du tout dsl


nouveau message Répondre Recherche


plan Plan du Forum Débutants||Tags : ----, nom, ---, musique, recherche, fait, plus, savoir, rappelle