Aide pour jouer James Bond


nouveau message Répondre
Page 1 de 2
Recherche

#
Bonjour!
J'essaie de jouer la B.O de james bond le problème, c'est qu'il y a trop de tab différentes...
Moi je joue ça:

|--------------------------|
|--------------------------|
|--------------------------|
|--------------------------|
|--2--3--4--3--2--3--4--3--|
|---0--0--0--0--0--0--0--0-|


pour l'intro et ensuite:

|------------------------------------------------------|
|------------------------------------------------------|
|------------------------------------------------------|
|-----------------------------1-0----------------------|
|---------------------------------2-0-2--1-0-----------|
|-0-2-2-2-0-0-0-3-3-3-2-2-2-0-----------------2-0-2----|



Comment faut-il faire??
Merci d'avance wink



chipie.foxtrot

Modérateur
#
wink
comment faut il faire quoi?

trouve toi un lien sur youtube pour écouter,
et tu places les doigts sur les cases indiquées,
sachant que le "0" est la corde jouée à vide

lorsque tu as la même note identique 3 fois de suite,
alterne le sens de l'attaque (faire des allers et retours)
ça permet de mieux lier les notes... wink

je joue de la guitare à six schtroumphs !
#
je connaît la musique de tête icon_cheesygrin

#
excellent la musique de james bond ! Chez moi elle sonne bizzare la fin je trouve pas vous ?

chipie.foxtrot

Modérateur
#
ben non,au note à note ça le fait,mais c'est un peu dépouillé icon_cheesygrin

je joue de la guitare à six schtroumphs !
#
ah oui ca doit etre ça la fin est très fade ! ^^

#
je la trouve un peu "fade" aussi :/


|------------------------------------------------------|
|------------------------------------------------------|
|------------------------------------------------------|
|-----------------------------1p0----------------------|
|---------------------------------2p0h2--1p0-----------|
|-0-2-2-2-0-0-0-3-3-3-2-2-2-0-----------------2p0h2----|


N'est ce pas plus joli comme ca??? Je trouve que ca rend mieux pas vous?

aurelien5

Petit Downloader
#
nytryk
nytryk a écrit :



[tab]|------------------------------------------------------|
|------------------------------------------------------|
|------------------------------------------------------|
|-----------------------------1p0----------------------|
|---------------------------------2p0h2--1p0-----------|
|-0-2-2-2-0-0-0-3-3-3-2-2-2-0-----------------2p0h2----|

[/tab]

N'est ce pas plus joli comme ca??? Je trouve que ca rend mieux pas vous?


Deuxiéme version: JE la trouve bisard aussi icon_redface

chipie.foxtrot

Modérateur
#
j'en ai trouvée une intéressante sur youtube façon fingerstyle,
il fournit même sa tab,les premières mesures sont pas mal,
après c'est toi qui vois si tu veux t'en inspirer:

http://fr.youtube.com/watch?v=iRq4gPCbBeU&feature=related

je joue de la guitare à six schtroumphs !
#
aurelien5
aurelien5 a écrit :

nytryk
nytryk a écrit :



[tab]|------------------------------------------------------|
|------------------------------------------------------|
|------------------------------------------------------|
|-----------------------------1p0----------------------|
|---------------------------------2p0h2--1p0-----------|
|-0-2-2-2-0-0-0-3-3-3-2-2-2-0-----------------2p0h2----|

[/tab]

N'est ce pas plus joli comme ca??? Je trouve que ca rend mieux pas vous?


Deuxiéme version: JE la trouve bisard aussi icon_redface


lol c'est la même que ci dessus, mais je la prefere avec les hammer, et les pull Off :)

Je vois voir ton lien chipie.foxtrot ^^

#
j'ai trouvé sur une autre version qui sonne mieux a mon sens j'espere que j'ai pas recopié une faute




|-------------------------------------------------------------------------------|
|-------------------------------------------------------------------------------|
|-------------------------------------------------------------------------------|
|----------------------------------------------------------------1--0-----------|
|------------------------------------------------------------------------2-0---2|
|-0-2-2-2-0-0-0--0-3-3-3-2-2-2-0-2-2-2-0-0-0--0-3-3-3---2--1--0-----------------|



Avec la suite de la tab ca rend bien aussi.
Enorme la version de chipie !

edit:desolé la mise en page me fait bugé ah nan cay bon grmbl smyleybleu

chipie.foxtrot

Modérateur
#
icon_cheesygrin c'est pas ma version endesaccord1
mais je pense que la base est bonne pour travailler chanteur icon_cheesygrin

je joue de la guitare à six schtroumphs !
#
J'en ai trouvé une autre plus complexe comme la tienne mais la flemme de tout recopier icon_cheesygrin

chipie.foxtrot

Modérateur
#
ce n'est pas la peine de s'embrouiller,
mais , tu peux mettre le lien ? icon_cheesygrin

je joue de la guitare à six schtroumphs !
#
Désolé je l'ai sur le programme guitar pro mais c'est James Bond Theme de John Barry donc j'ai pas de lien a te proposer hélas.
Mais bon je me sacrifie et pis je recopie un bout ! :p


|----0-0-0------------1-1-1-----0-0-0----0-0-0-------------1-1-1----0-0--------9----8---------------|
|--3--------3-3-3--3-------------------3--------3-3-3---3----------------3-----11---10--10---8---10-|
|---------------------------------------------------------------------------------------10---9---10-|
|---------------------------------------------------------------------------------------------------|
|---------------------------------------------------------------------------------------------------|
|---------------------------------------------------------------------------------------------------|

J'ai pas encore essayé mais c'est pas celle de la video hein mais j'aimerais bien mettre la main dessus



nouveau message Répondre
Page 1 de 2
Recherche


plan Plan du Forum Débutants||Tags : james, bond, jouer, joue, differentes, ensuite, moi, intro, trop