Accords d'Emily Jane White / Hole the middle


nouveau message Répondre
Recherche

#
Bonjour,

Je suis à la recherche des accords d'Emily Jane White pour la chanson :
"Hole in the middle"
Vous pouvez l'écouter sur you tube.
Merci d'avance.
@+



#
bonjour
moi aussi je recherche ces accords…
les as-tu trouvés depuis?
merci!

rankxerox

Hyper Tabber
Petit Downloader
1 message
#
Salut

Emily Jane White - Hole in the middle

Em G Am Em
Em G B7

V'là l'tout !

@+ chanteur

RX
#
Bonsoir et merci pour les accords.
Si ce n'est pas trop te demander, peux-tu me donner les accords d'une autre de ses chansons D'Emily Jane White "Sleeping Dead", si tu les connais. Merci d'avance.
Bonne Année
@+

rankxerox

Hyper Tabber
Petit Downloader
1 message
#
smiley-guitar

Emily Jane White - Sleeping dead

Am E E7 Am
A G Dm Am
A G Dm Am
A G Dm Am
A G Dm Am
Am Am/G (302210) Am Am/G
F G Am
F G Am
Am Am/G Am Am/G
Am E
C E Am Am/G
C E Am
A G Dm Am
A G Dm Am
A G Dm Am
A G Dm Am
Am Am/G Am Am/G
F G Am
F G Am
Am E Am
Am E Am
Am E Am
F G Am
F G Am
Am Am/G Am
Am E Am E Am
C E Am Am/G
Am E Am
C E Am
C E7 Am


Ca devrait être à peu près ca ...
bump

@+

RX
#
Merci beaucoup
A la prochaine

#
Salut,

Je viens encore t'embêter, je recherche les accords de "Dagger" toujours d'Emily jane White.
Que penses tu de ses chansons ?
Merci d'avance.
@ bientôt

rankxerox

Hyper Tabber
Petit Downloader
1 message
#
Salut

J'ai un peu de temps ce week end pour rechercher les accords

Sinon, c'est pas mal ce qu'elle fait, non ? chanteur

@+

RX
#
Merci de passer du temps
j'aime beaucoup cette chanteuse
@+

rankxerox

Hyper Tabber
Petit Downloader
1 message
#
Salut

Je viens de m'apercevoir qu'Emily Jane white n'apparaissait pas dans la liste (très fournie) des artistes sur Partoch. Ceci devrait être réglé très rapidement je pense.
Néanmoins je te glisse la partoche avec des bouts de tablatures dans ta messagerie.

Bon dimanche chanteur

RX
#
Salut
je cherche les tablatures pour dagger d'emily jane white et ce sans succès. pourrais-tu me les donner aussi?

merci!

#
Bonjour,

Je te glisse les accords Emily Jane White que j'ai eu la chance de trouver avec un menbre du site.
@ +


Dagger - Emily Jane White

TablEdited by RankXerox

Capo III


Intro et couplets

Am Am
| | | | | | | |
||----------------------------0---|----------------------------3---|
||--------------------1-----------|--------------------1-----------|
||------------------------2-------|------------------------2-------|
||--------2-----------------------|--------2-----------------------|
||0---------------0---------------|0---------------0---------------|
||--------------------------------|--------------------------------|

G G
| | | | | | | |
|----------------------------3---|----------------------------0---|
|--------------------3-----------|--------------------3-----------|
|------------------------0-------|------------------------0-------|
|--------------------------------|--------------------------------|
|--------2-----------------------|--------2-----------------------|
|3---------------3---------------|3---------------3---------------|

F7M F7M
| | | | | | | |
|----------------------------0---|----------------------------0---||
|--------------------1-----------|--------------------1-----------||
|--------2---------------2-------|--------2---------------0-------||
|3---------------3---------------|3---------------3---------------||
|--------------------------------|--------------------------------||
|--------------------------------|--------------------------------||

Am G F7M F7M
Am G F7M F7M
Am G F7M F7M
Am G F7M F7M
Am G F7M F7M
Am G F7M F7M
Am G F7M F7M
Am G F7M F7M
Am G F7M F7M Dm

Dm Am
| | | | | | | |
||----------------------------1---|----------------------------0---|
||--------------------3-----------|--------------------1-----------|
||--------2---------------2-------|------------------------2-------|
||0---------------0---------------|--------2-----------------------|
||--------------------------------|0---------------0---------------|
||--------------------------------|--------------------------------|

C G
| | | | | | | |
|----------------------------3---|----------------------------1---||
|--------------------1-----------|--------------------0-----------||
|------------------------0-------|------------------------0-------||
|--------2-----------------------|--------------------------------||
|3---------------3---------------|--------2-----------------------||
|--------------------------------|3---------------3---------------||

Am C G Dm Dm
Am C G Dm Dm

Am G F7M F7M
Am G F7M F7M
Am G F7M F7M Dm

Am C G Dm Dm
Am C G Dm Dm
Am C G Dm Dm
Am C G Dm Dm
Am C G Dm Dm
Am C G Dm Dm




F#7+/5+ Dm7
| | | | | | | |
||----------------------------0---|----------------------------3---|
||--------------------3-----------|--------------------3-----------|
||------------------------4-------|------------------------0-------|
||--------4-----------------------|--------4-----------------------|
||2---------------2---------------|0---------------0---------------|
||--------------------------------|--------------------------------|

G Am7
| | | | | | | |
|----------------------------0---|----------------------------0---|
|--------------------0-----------|--------------------0-----------|
|------------------------0-------|------------------------0-------|
|--------0-----------------------|--------4-----------------------|
|--------------------------------|--------------------------------|
|3---------------3---------------|2---------------2---------------|

Em Am
| | | | | | | |
|----------------------------0---|----------------------------3---|
|--------------------0-----------|--------------------1-----------|
|------------------------0-------|------------------------2-------|
|--------2-----------------------|--------2-----------------------|
|2---------------2---------------|0---------------0---------------|
|--------------------------------|--------------------------------|

G Am7
| | | | | | | |
|----------------------------0---|----------------------------0---||
|--------------------0-----------|--------------------0-----------||
|------------------------0-------|------------------------0-------||
|--------0-----------------------|--------4-----------------------||
|--------------------------------|--------------------------------||
|3---------------3---------------|2---------------2---------------||

F#7+/5+ Dm7 G Am7
Em Am G Am7
F#7+/5+ Dm7 G Am7
Em Am G Am7

Am C G Dm Dm
Am C G Dm Dm
Am C G Dm Dm
Am C G Dm Dm

rankxerox

Hyper Tabber
Petit Downloader
1 message
#
Salut à tous

J'ai fait deux fois une demande d'ajout d'artiste pour Emily Jane White, mais sans succès
icon_redface

Je m'y prend peut-être mal ... endesaccord3
Donc il reste des tabs à caser pour la demoiselle ...

Bon week end chanteur

RX
#
vous êtes supers! merci beaucoup bravo

rankxerox

Hyper Tabber
Petit Downloader
1 message
#
Salut à tous

Ca y est le compte d'Emily est ouvert
J'ai mis trois partoches, d'autres devraient arriver

Le bon dimanche (-1heure !) chanteur



nouveau message Répondre Recherche


plan Plan du Forum Tablatures||Tags : accords, middle, hole, white, emily, jane, bonjour, recherche, des