Echauffement des doigts


nouveau message Répondre
Recherche

#
Bonjour à tous, wink

je suis débutant donc en élève consciencieux, je travaille régulièrement le déliage des doigts de la main gauche comme cela est présenté sur la vidéo.

Est-il utile de s'échauffer la main et les doigts par une éventuelle gymnastique? Et cela permet-il de gagner en fluidité?

Bon j'y retourne smiley-guitar ma guitare m'attend.

Bon courage aux débutants et les tous les autres bien sur.

Merci pour vos réponses



guizicos

Jeune tabber
4 photos
#
Bonjour,

Evidemment, les exercices de dextérité pour s'échauffer la main et se délier les doigts sont très importants wink

Tu as des exercices simples pour le déliement des doigts :

(grosse corde) -0-1-2-3-4-3-2-1-0-1-2-3-4-3-2-1-0-1-2-3-4-3-2-1-0-1-2-3-4-

Tu peux le transposer ou tu veux :
(grosse corde) -4-5-6-7-6-5-4-5-6-7-6-5-4-5-6-7-6-5-4-5-6-7-6-5-4-5-6-7-

Tu as plus compliqué ensuite :
---------------------------------------------------------
---------------------------------------------------------
-------------------4-----1-2-3-4-3-2-1-------------------
-----------------3---------------------2-----------------
---------------2-------------------------3---------------
-1-2-3-4-3-2-1-----------------------------4-------------


Ou
---------------------------------------------------------
---------------------------------------------------------
-------------1-2-3-4-----------------1-2-3-4-------------
-----------2---------3-------------2---------3-----------
---------3-------------2---------3-------------2---------
-1-2-3-4-----------------1-2-3-4-----------------1-------


Et plein d'autres smiley-guitar

www.myspace.com/echoeslive

"Je ne suis pas pour la femme-objet, au contraire j'aime bien quand c'est moi qui ne bouge pas." Desproges
#
moi je met ma main devant mon nez et chaqun leur tour mais doigts le touche.avec le temps eloigne ta main et va plus vite moi sa me rechaufe^^ icon_redface


nouveau message Répondre Recherche


plan Plan du Forum Débutants||Tags : doigts, les, main, cela, -il, bon, des, comme, eleve