tablature habib koité


nouveau message Répondre
Recherche

#
salut tout le monde! je suis à la recherche de certaine tablatures d'habib koité dont la chanson "din din wo" ou encore "i ka barra" mais je ne les trouve nul part donc si quelqun a les partoches sa serai cool de me les filer merci encore a+



#
je connais un habib koité mai c un malien, donc je sai pa si on parle du meme sad si c celui dont tu parle , je croi que je pe taider

#
si t arrive a jouer de l habib koite ben respect gars . la guitare malienne est tou ce qu il y a de plus chaud a maitriser . une vrai technique de piking . tu m interresse fortement

#
Ouep megajuju on parle du meme gars donc si tu peux m'aider sa m'intéresse.
merci

#
salut
pour les morceau d habib et d autre comme boubacar traore, feu ali farka toure etc ( que je ne sais pas jouer , trop compliques pour mes doigts de toubab ) ca se passe dans le bas du manche dans les accords banals et souvent en mineur . il y a aussi un accordage special pour la pure guitare malienne. je ne l ai plus en tete mais ca doit etre trouvable sur la toile, mais le plus important c est leur jeu specifique , les rythmiques donnes par la main droite( souvent pouce et index , 2 doigts leur suffisent mais ca va tres vite) comme la kora le goni ou le djeli goni. leur musique ( percussion comme corde ) ressemble a leur langage , rapide , saccade , dansant et tres phrase. c est enormement de placement et de precision , il joue facilement avec le temps . le mieux c est encore d aller apprendre a jouer la bas ,un accueil formidable , des purs musiciens... et les bambaras...

#
en fait ydaki c pas moi qui le joue c un de mes potes il est de labas icon_redface et jai pommé les partitions mai si tu $uperbouba772 c liu qui le joue tom29guitare allé salut smiley-guitar

#
jai trouve un site ou ya des tablatures dhabib koité c'est "kirina" allé salut smiley-guitar

#
Bon ben ya toujour rien de dispo????

#
J'arrive surement après la guerre mais bon...
megajuju tu dit avoir trouver un site, mais où est-il ???
Je cherche aussi en vain...

#
Bonjour. Je viens de tomber sur ce post. J'étais en train de faire la tab de "Din Din Wo", et devant l'ampleur de la tâche, je cherchais la tab complète. Je peux au moins fournir l'intro (en PDF ou GPX ou les 2). J'ai ajouté toutes les indications nécessaires (doigtés, diagrammes, tempo... Vive GuitarPro !).
Je ne sais pas trop comment déposer des tabs sur ce site, mais je vais chercher.
Pour d'autres tabs du genre "introuvables", n'hésitez pas à me demander, j'en fais déjàplein pour mes élèves !
Bonne gratte et salut.

#
Un bon déterrage, mais j'avais tenté de retranscrire dindinwo il y a plusieurs années, ça donne ca:

Tuning : E A D G B E Time Signature: 4/4

| | | | | | | | | | | | | | | |
|-0-----0----------|------------------|------------------|------------------|
|-------------3----|-1-------0--------|-1-------1---0----|-1-------1---0----|
|-0---0------------|-----0-------0----|-2---2------------|-2---2------------|
|---------0---3----|-2-------0--------|-2-----2-----0----|-2-----------0----|
|------------------|------------------|------------------|-------0----------|
|------------------|------------------|------------------|------------------|

| | | | | | | | | | | | | | | |
|------------------|------------------|------------------|------------------|
|-1-------0---3----|-1-------1---0----|-1-------1---0----|-1-------1---0----|
|-2---0------------|-----0---0---0----|-2---2------------|-2---2------------|
|-2-------0---3----|-2----------------|-------2-----0----|-2-----------0----|
|------------------|-------------2----|-0----------------|-------0----------|
|------------------|---------3--------|------------------|------------------|

| | | | | | | | | | | | | | | |
|-0-----0----------|------------------|------------------|------------------|
|-------------3----|-1-------0--------|-1-------1---0----|-1-------1---0----|
|-0---0------------|-----0-------0----|-2---2------------|-2---2------------|
|---------0---3----|-2-------0--------|-------2-----0----|-2-----------0----|
|------------------|------------------|-0----------------|-------0----------|
|------------------|------------------|------------------|------------------|

| | | | | | | | | | | | | | | |
|------------------|------------------|------------------|-------------0----|
|-1-------0---3----|-1-----------0----|-1-------1---0----|-1-------1--------|
|-2---0------------|-----0---0--------|-2---2------------|-2---0-------0----|
|-2-------0---3----|-2----------------|-------2-----0----|-2-----2---2------|
|------------------|-------------2----|-0----------------|------------------|
|------------------|---------3--------|------------------|------------------|

| | | | | | | | | | | | | | | |
|---3-----1p0-0----|---1---0----------|------------------|------------------|
|-0----------------|-3-------3---0----|-1-------1---0----|-1-------1---0----|
|-------2-----0----|---2---0----------|-2---2------------|-2---2------------|
|------------------|-3----------------|-------2-----0----|-2-----------0----|
|------------------|-------------2----|-0----------------|-------0----------|
|------------------|---------3--------|------------------|------------------|

| | | | | | | | | | | | | | | |
|------------------|------------------|------------------|-------------0----|
|-1-------0---3----|-1-----------0----|-1-------1---0----|-1-------1--------|
|-2---0------------|-----0---0--------|-2---2------------|-2---2-------0----|
|-2-------0---3----|-2----------------|-------2-----0----|-2---------2------|
|------------------|-------------2----|-0----------------|-------0----------|
|------------------|---------3--------|------------------|------------------|

| | | | | | | | | | | | | | | |
|---3-----1p0-0----|-5-----7-----7----|-5-----5-----5----|-5-----5----------|
|-0----------------|------------------|---------5--------|------------------|
|-------2-----0----|-5---7-----7------|------------------|------------------|
|------------------|------------------|------------------|-----------2/7----|
|------------------|------------------|-0---------0------|-----0---0--------|
|------------------|------------------|------------------|------------------|

| | | | | | | | | | | | | | | |
|-8-----7-----5----|---3-----1---0----|---------0--------|-------------0----|
|------------------|------------------|-----1-----1------|-1-------1--------|
|---9/7---7/5---5/-|-4---4---2---0----|-2----------------|-2---0-------0----|
|------------------|------------------|---2---2----------|-2-----2---2------|
|------------------|------------------|-0----------------|------------------|
|------------------|------------------|-------------3----|------------------|


C'est que le début, il peut manquer des notes, mais ca sonne pas mal :)

Par contre si vous avez des liens pour d'autres partitions d'habib, faites tourner :)


nouveau message Répondre Recherche


plan Plan du Forum Tablatures||Tags : les, din, koite, habib, encore, partoches, certaine, tablatures, dont