Gamme pour blues just le Mi?


nouveau message Répondre
Recherche

#
Bon voila ma question est pour joué du blues on se basse sur les Gammes Pentatonique,mais le problème c'est que je né trouvé que les Pentatonique de Mi,je voulais savoir s'il existé des penta de;do,Ré,Fa,Sol,La;Si.Et si oui pouryévous les posté maitre maitre
maitre maitre



rafiki64

Tabber motivé
#
Oui sa existe, il suffit que tu transpose.

jeguil

Artiste motivé
9 photos
157 messages
#
Il y a 12 gammes pentatoniques, puisqu'il y a 12 notes, il suffit de déplacer les doigts sur le manche, mais ça demande un peu de courage !
Tu déplaces d'une case, tu auras la gamme de Fa, une case de plus, t'auras Fa# etc., Fait un effort et tu y arriveras ! icon_redface

A+

Ce n'est pas en sciant que Léonard devint scie...
#
Merci de m'avoir repondu, cependant je reste toujours dans le vague, le problème qui se pose est que je débute icon_redface
Est ce que vous ne pourriez pas me faire une faveur et me les Poster. maitre

Merci d'avance icon_cheesygrin

pascal17

Petit causeur
Jeune tabber
Petit Downloader
11 photos
Membre VIP
43 messages
Modérateur
#
http://www.partoch.com/cours/cours_guitare,191,Utilisations+des+gammes+pentatoni...

te voilà un peu de lecture,

autrement, parce que c'est toi wink :

un exemple:
e---------------------5-8
B-----------------5-8---- première position de la
G-------------5-7-------- gamme pentatonique
D---------5-7------------ mineure de La
A-----5-7----------------
E-5-8-------------------- le la est ici, en case 5


e---------------------0-3
B-----------------0-3---- voila la plus celebre,
G-------------0-2-------- la gamme pentatonique de mim
D---------0-2------------
A-----0-2----------------
E-0-3-------------------- le mi est ici, en case 0

Okayyyy?

#
Merci à Pascal 17 qui m'a aidé à avoir un apreçu de la transposition mais .... IL y a un "Mais" hélas icon_cheesygrin
j'ai deja lu le lien que tu m'as gentillement filé, "je me suis quand même cassé la tête avant de poster" wink , faut dire que le solfege et Moi ça a toujours été une grande histoire d'amour love

et Voici un exemple que j'ai trouvé , je vous présente le SEUL l'unique ET LE COMPLET exemple de GAMMES PANTONIQUES MI smile_cool :

PANTATONIQUE MI MINEUR 1ER°

---------------------------------3----------------------
----------------------------3---------------------------
-------------------2--3--------------------------------
---------------2----------------------------------------
------1--2---------------------------------------------
-3------------------------------------------------------

PANTATONIQUE MI MINEUR 2EME°


--------------------------------------------3--5----------
-------------------------------------3--5-----------------
--------------------------2--3--4------------------------
-------------------2--5-----------------------------------
--------1--2--5------------------------------------------
-3--5-----------------------------------------------------

PANTATONIQUE MI MINEUR 3EME°


--------------------------------------------5--6--7-------
-------------------------------------5--8------------------
------------------------------4--7-------------------------
-------------------5--7--8--------------------------------
------------5--7-------------------------------------------
-5--6--7---------------------------------------------------

PANTATONIQUE MI MINEUR 4EME°

--------------------------------------------------------7--10-
-----------------------------------------8--10--11----------
----------------------------------7--9------------------------
-----------------------7--8--9-------------------------------
--------------7--10------------------------------------------
-6--7--10---------------------------------------------------

PANTATONIQUE MI MINEUR 5EME°

----------------------------------------------------------10--12-
---------------------------------------------10--11--12--------------
--------------------------------------9--12----------------------------
-----------------------------9--12-------------------------------------
------------10--12--13-----------------------------------------------
-10--12---------------------------------------------------------------

Je tiens à remercier chaudement kar76 pour ces gammes.


Est ce que ça serait possible de me passer les gammes Pantatoniques CoMplèTe de DO,RE, ,FA,SOL,LA SI?

Pleaaaaaaaaaaaaaaaaaaase is there someone to help me ? I have Blue Devil in my soul smiley-guitar

denis-px

Artiste motivé
Jeune tabber
1 photo
Membre VIP
204 messages
Modérateur
#
http://www.guitare-live.com/outils/

la musique c'est comme l'amour seul c'est bien à plusieurs c'est mieux !
#
thanks Denis_Px je voulais juste savoir s'il y aurait pas quelues erreurs sur le site proposé, vu que j'ai fais la comparaison entre le Mi de Kar76 et celui du lien et je vois qu'ils diffèrent !!!

denis-px

Artiste motivé
Jeune tabber
1 photo
Membre VIP
204 messages
Modérateur
#
je n'ai aucne utilité de ce genre de site j'ai juste assé un coup d'oeuil dessus et mis en mémoire dans un coin de l'ordi pour répondre aux sempiternelles questions sur les gammes.
puiis il me manque toutes les positions intermédiaires que j'utilise plus fréquemment comme les descentes en diagonales ... mais ...comme je les connais :)
s tes différences c'est des notes en plus au dbut ou à la fin c'est pas un problème ... ça peut toujours se rajouter ... pour moi un shéma de gamme ça couvre tout le manche pas une simple portion icon_cheesygrin

au fait tes penta de mi sont fausses.

la musique c'est comme l'amour seul c'est bien à plusieurs c'est mieux !
#
Merci pour es info denis-px bravo .Tu dis que mes Mi sont fausse hum ,alors se de ton lien son juste?

denis-px

Artiste motivé
Jeune tabber
1 photo
Membre VIP
204 messages
Modérateur
#
regarde déjà celle de pascal par rapport à la tienne

edit on en avais déjà parlé là :
http://www.partoch.com/forum/post_212243,gammes+pour+soli.html

la musique c'est comme l'amour seul c'est bien à plusieurs c'est mieux !
pascal17

Petit causeur
Jeune tabber
Petit Downloader
11 photos
Membre VIP
43 messages
Modérateur
#
et amigo,
essaye ca:

la boite à outils du guitariste...
ca va te plaire!
http://www.01net.com/telecharger/windows/Loisirs/musique/fiches/30638.html

GUITOOLS.

#
Mercipascal17 c justement se qu'il me faut love


nouveau message Répondre Recherche


plan Plan du Forum Solfège||Tags : les, blues, pentatonique, oui, joue, basse, pouryevous, question, voila