could you be love


nouveau message Répondre
Recherche

#
voici le tab de could you be love de bob
---------------------------------
---------------------------------
---------------------------------
---------------------------------
----2-2-2-2---2-4-2-5-2-4-0------
---------------------------------
puis apres faire acord sim
--7------------------------------
--7------------------------------
--7------------------------------
--7------------------------------
--9------------------------------
--7------------------------------
il faut faire une fois la grosse corde toute seul(avec l'acord)puis les autres cordes bonne gratte smiley-guitar




nouveau message Répondre Recherche


plan Plan du Forum Tablatures||Tags : could, faire, puis, love, you, acord, apres, ---, seul