TAB DANCIN TILL DAWN A LA BASS


nouveau message Répondre
Recherche

#
cherche tablature de :dancin'till dawn "L.KRAVITZ"a la bass



#
Salut, la tab basse de lenny kravitz " dancin till dawn " :

super groove de basse !! j'adore





Am G F
|--------5-------5------5------5-----------------------------------|
|---------7-------75--75-75--75-75---------------------------------|
|--------------------------------------234-----234-----123-----123-|
|-5-5x-----5-5x-----5------5------3-3x----3-3x----1-1x----1-1x-----|

Bridge:
E F
|---------------------------------|
|---------------------------------|
|---------------------------------|
|-0-0-0-0-0-0-0-0-1-1-1-1-1-1-1-1-| x3

G Am
|-------------------575---------------------|
|-----------------57---75---> go to verse---|
|-------------------------------------------|
|-3-3-3-3-3-3-3-3--------------------------- [/size]
[/size]



@+

clef-bass




nouveau message Répondre Recherche



Autre liens sur le site pour Lenny Kravitz : Discographie Lenny Kravitz - Tee Shirt Lenny Kravitz - Poster Lenny Kravitz
plan Plan du Forum Tablatures||Tags : dawn, KRAVITZ, dancin, till, kravitz, bass, LENNY, tab, tablature