Mulan (disney): comme un homme/ I'll make a man out of you


nouveau message Répondre
Recherche

#
Salut à tous,

je suis à la recherche de la tablature (accords simple) pour guitare, de la chanson "comme un homme" du dessin animé Mulan. Le titre en anglais est "I'll make a man out of you".
Malgré mes recherches sur le net, je n'ai rien trouvé.
Voici un lien vidéo: http://www.youtube.com/watch?v=ARQdT47H5Lo

Merci d'avance à tous pour votre aide!



#
salut !!

j'ai chercher les accord mai je croi que personne ne sait interesser a cette music donc je pense qu'il va faloir que tu l'ecoute et cree toi meme la tab si tu a une bonne oreille musicale sinon demande a quelqu'un de plus experimenter pour le faire, il y aura surment quelqu'un

voila bonne chance si tu colle icon_redface


 Citation :
ce n'est pas parce-que ils sont nombreux a avoir tort qu'il ont raison

#
Non nous aussi on la veuuuut !! c'est trop bien cette chanson razz S'il vous plait si quelqu'un est capable de nous trouver les accords ça serait super !!!!

#
Bon j'ai un peu chercher et j'ai trouvé les accordswink Alors voila :

Attaquons l'exercice, pour défaire, les huns!
0---0------3-----------------0---------2---
0---0------3-----------------1---------3---
0---2------0-----------------2---------2---
2---0------0-----------------2---------0---
2---0------2-----------------0---------x---
0---2------3-----------------x---------x---
Et ainsi de suite...
Ensuite:

Vous êtes plus fragiles, que des fillettes, mais envers, et contre tout...
----------0-----------------0---------------------3---------------0------
----------0-----------------0---------------------3---------------0------
----------0-----------------2---------------------0---------------0------
----------2-----------------0---------------------0---------------2------
----------2-----------------0---------------------2---------------2------
----------0-----------------2---------------------3---------------0------

Je serai, faire de vrai... hommes de vous!
-----0-------------0----------------0---
-----0-------------0----------------0---
-----0-------------2----------------0---
-----2-------------0----------------2---
-----2-------------0----------------2---
-----0-------------2----------------0---

La partie "rapide" après donne :

-0---0-0---0-3---3-0---0-2---2-0-
-0---0-0---0-3---3-1---1-3---3-1-
-0---0-2---2-0---0-2---2-4---4-0-
-2---2-0---0-0---0-2---2-4---4-2-
-2---2-0---0-2---2-0---0-2---2-3-
-0---0-2---2-3---3---------------

En suite " être un hoooomme..."

-0---0---3---3 0---2---0
-0---0---3---3 1---3---0
-0---2---0---0 2---2---0
-2---0---0---0 2---0---2
-2---0---2---2 0-------2
-0---2---3---3 X3 --------0

Et enfin le changement de tonalité, il suffit de décaler tous ces accords d'un demi-ton vers le haut.
Et voila wink

#
Ouiii! Merci !! chanteur love

Scampiscampidou

nouveau message Répondre Recherche


plan Plan du Forum Tablatures||Tags : man, you, mulan, out, make, comme, homme, chanson, dessin