quelques morceaux avec accords de base


nouveau message Répondre
Recherche

#
bonjour, sa fait 2 mois que je fait de la guitare je ne prend pas de cours ,j'ai pas de potes qui joue de la guitare j'ai appris grâce à ce site. Voilà mon problème, je connais les accord de base ,je ne sais pas encore faire de barrée enfin un son sort mais pas tres net donc je le travaille et puis ne parlons pas des accord barrée ou on doit bloqué les corde avec un doigt et jouer un accore avec deux autre je n'y arrive pas.
Deuxième partie du problème marre de jouer le début d'un morceau sans savoir le faire en entier ,j'aimerai pouvoir faire un morceau entier comme zombie ou wonderwall ou je c'est faire l'intro , donc je vous demandes plusieurs petite chose à vous guitariste confirmée ou pas:
-pour les barrées est-ce une question de souplesse pour réussir a faire un accord en même temps?
-dîtes moi quelques morceau avec des accords simple et j'ai utiliser la fonction recherche mais rien me correspond je suis plus dans le style wonderwall, zombie,knock knocking on even's door ,enfin dans ce style je c'est c'est vaste
-ensuite j'aimerais pouvoir être en contact avec l'un de vous celui qui le souhaite pour m'apprendre quelques ptit truc.
-et derniers point ceux qui viennent pour écrire vas dans la section recherche s'abstenir car je pense que chaque cas et différents et attends une réponse différente.
merci de vôtre lecture je devrais pensait à faire écrivains ne penser vous pAs?

p.s:je suis le petits fils de bob dylan.



sandinista

Petit causeur
Mega Tabber
Mangeur de Tabs
6 photos
17 messages
#
Sur ce topic, tu vas trouver quelques petits morceaux, pas trop durs et sympas à jouer ( sans barrés )
http://www.partoch.com/forum/post_807141.html

A+ smiley-guitar

guizicos

Jeune tabber
4 photos
#
Egalement sur celui-la wink

http://www.partoch.com/forum/post_171376,quelques+morceaux+pour+debuter+guitare....

www.myspace.com/echoeslive p'tite pub smile_cool

La bière est un délice, mais t'en boiras jamais autant que t'en pisse !
#
ok et pour mes autres question?

#
Alors pour répondre a tes question non les barrés se n'est pas une question de souplesse mais une question d'entrênement. plus tu vas t'entrainer plus un "jolie" son sortira de ta guitare.
Sinon les liens que ton donné les autre partochard son très bien. Et si tu a d'autre question je suis à ton service wink

pascal17

Petit causeur
Jeune tabber
Petit Downloader
11 photos
Membre VIP
50 messages
Modérateur
#
tu peux jouer knocking on heaven's door..;

intro:
G D C C ; G D C C;

apres:
couplet G D Am Am; G D C C X2

refrain gun's: G D C C X4

1er solo:
E|-------------------------------------------------------|
B|-----------------15-------------------------15/17--15--|
G|--12-14brp12-14-----14br-1212~~~---------12------------|
D|--------------------------------------/14--------------|

E|----------------------------------------15----------15-|
B|-13p12-13/15---13p12-13---12--------1213--1312---/17---|
G|-------------------------------------------------------|
D|----------------------------14-------------------------|

E|-17br17---17br17br15------
B|--------------------------
G|--------------------------
D|--------------------------

E|-22--20192019-22--20-2020----|--------------------15--||
B|-------------------------17--|--15brbr----------------||
G|-----------------------------|----------14brbr--12----||
D|-----------------------------|------------------------||


couplet
refrain
2eme solo:

E|-----------------------------------------------------------------|
B|--19b~~~~~~~r-19---19brp17-19-17-19-17-19-17----19b~~~~~r-19- 17-|
G|-----------------------------------------------------------------|
D|-----------------------------------------------------------------|

E|------------------------------------------------|
B|-15-17-----15-17----------1517--------------19--|
G|------------------------------------------------|
D|-------17--------19br1719--------19br19br17-----|

E|-----------------------------------------------------------------------------|
B|19b~~~~~~~r-19---19brp17-19-17-17~~15~~12~~~~~-------------------------------|
G|-----------------------------------------------12~--11~---11br-9~---7---5/4--|
D|---------------------------------------------------------------------------5-|


http://buddyride.chez-alice.fr/knocking_on_ext.mp3

je vends ma strat Honher, micros GFS, electronique TOP refaite.
http://www.pascalrey.net ** ** http://www.buddyride.net ** /
#
Bonjour! je suis vraiment très très débutante et japprends la gratte toute seule quelqu'un aurait il une vidéo ou il joue Léa de louise attaque en expliquant tout svp.
Merci.
Et jai ces partitions et ji comren ke dalle alors si vous pouvez maider ce serai tré genti.
Marci. Déja je compren pas si i fo le jouer comme des accords ou comme des arpèges. je comprends pas ce ke c les lettres o dessus. Bref je compren pas grand chose. Help me
Mercii




Louise Attaque léa
Guitare 1




Q E E Q E E Q E E Q E E 6x
E||-------------------------|-------------------------||
B||--------1----------------|-------1-----------------||
G||*-------2----------1-----|-------2----------1-----*||
D||*--2----2----------2-----|--2----2----------2-----*||
A||---0-------0--2----2--0--|--0-------0--2----2--0---||
E||--------------0----------|-------------0-----------||


Q E E Q E E Q E E Q E E Q E E Q E E
------------------------|------------------------|------------------------|
-------1----------------|-------1----------------|-------1----------------|
-------2----------1-----|-------2----------1-----|-------2----------1-----|
--2----2----------2-----|--2----2----------2-----|--2----2----------2-----|
--0-------0--2----2--0--|--0-------0--2----2--0--|--0-------0--2----2--0--|
-------------0----------|-------------0----------|-------------0----------|


Q E E Q E E Q E E Q E E Q E E Q E E 8x
------------------------||-------------------------|-------------------------||
-------1----------------||--------1----------------|-------1-----------------||
-------2----------1-----||*-------2----------1-----|-------2----------1-----*||
--2----2----------2-----||*--2----2----------2-----|--2----2----------2-----*||
--0-------0--2----2--0--||---0-------0--2----2--0--|--0-------0--2----2--0---||
-------------0----------||--------------0----------|-------------0-----------||


Q E E Q E E Q E E Q E E Q E E
-------------|------------------------|------------------------|
-------1-----|-------1----------1-----|-------1----------1-----|
-------2-----|-------2----------2-----|-------0----------0-----|
--2----2-----|--3----3--3--3----3--3--|--2----2--2--2----2--2--|
--0-------0--|--3----3--3--3----3--3--|--3----3--3--3----3--3--|
-------------|--1----------1----------|--0----------0----------|


Q E E Q E E Q E E Q E E Q E E Q E E
------------------------|------------------------|------------------------|
-------3----------3-----|-------1----------1-----|-------1----------1-----|
-------0----------0-----|-------0----------0-----|-------2----------2-----|
--0----0--0--0----0--0--|--2----2--2--2----2--2--|--3----3--3--3----3--3--|
--2----2--2--2----2--2--|--3----3--3--3----3--3--|--3----3--3--3----3--3--|
--3----------3----------|--0----------0----------|--1----------1----------|


Q E E Q E E Q E E Q E E Q E E Q E E
------------------------|------------------------||-------------------------|
-------1----------1-----|-------3----------3-----||--------1----------------|
-------0----------0-----|-------0----------0-----||*-------2----------1-----|
--2----2--2--2----2--2--|--0----0--0--0----0--0--||*--2----2----------2-----|
--3----3--3--3----3--3--|--2----2--2--2----2--2--||---0-------0--2----2--0--|
--0----------0----------|--3----------3----------||--------------0----------|


Q E E Q E E 8x Q E E Q E E Q E E
-------------------------||-------------|------------------------|
-------1-----------------||-------1-----|-------1----------1-----|
-------2----------1-----*||-------2-----|-------2----------2-----|
--2----2----------2-----*||--2----2-----|--3----3--3--3----3--3--|
--0-------0--2----2--0---||--0-------0--|--3----3--3--3----3--3--|
-------------0-----------||-------------|--1----------1----------|


Q E E Q E E Q E E Q E E Q E E Q E E
------------------------|------------------------|------------------------|
-------1----------1-----|-------3----------3-----|-------1----------1-----|
-------0----------0-----|-------0----------0-----|-------0----------0-----|
--2----2--2--2----2--2--|--0----0--0--0----0--0--|--2----2--2--2----2--2--|
--3----3--3--3----3--3--|--2----2--2--2----2--2--|--3----3--3--3----3--3--|
--0----------0----------|--3----------3----------|--0----------0----------|


Q E E Q E E Q E E Q E E Q E E Q E E
------------------------|------------------------|------------------------|
-------1----------1-----|-------1----------1-----|-------3----------3-----|
-------2----------2-----|-------0----------0-----|-------0----------0-----|
--3----3--3--3----3--3--|--2----2--2--2----2--2--|--0----0--0--0----0--0--|
--3----3--3--3----3--3--|--3----3--3--3----3--3--|--2----2--2--2----2--2--|
--1----------1----------|--0----------0----------|--3----------3----------|


Q E E Q E E Q E E Q E E 8x
|-------------------------|-------------------------||
|--------1----------------|-------1-----------------||
|*-------2----------1-----|-------2----------1-----*||
|*--2----2----------2-----|--2----2----------2-----*||
|---0-------0--2----2--0--|--0-------0--2----2--0---||
|--------------0----------|-------------0-----------||


Q E E Q E E 3x Q E E Q E E E E E E
--------------------------||-------------|-------------------------|
--------1-----------------||-------1-----|-------1-----------1-----|
*-------2----------1-----*||-------2-----|-------2-----------2-----|
*--2----2----------2-----*||--2----2-----|--3----3--3--3--3--3--3--|
---0-------0--2----2--0---||--0-------0--|--3----3--3--3--3--3--3--|
--------------0-----------||-------------|--1----------1-----------|


Q E E E E E E Q E E E E E E Q E E E E E E
-------------------------|-------------------------|-------------------------|
-------1-----------1-----|-------3-----------3-----|-------1-----------1-----|
-------0-----------0-----|-------0-----------0-----|-------0-----------0-----|
--2----2--2--2--2--2--2--|--0----0--0--0--0--0--0--|--2----2--2--2--2--2--2--|
--3----3--3--3--3--3--3--|--2----2--2--2--2--2--2--|--3----3--3--3--3--3--3--|
--0----------0-----------|--3----------3-----------|--0----------0-----------|


E E E E E E E E E E E E E E E E
--------------------------|--------------------------|
--1-----x-----------x-----|--1-----x-----------x-----|
--2-----x-----------x-----|--0-----x-----------x-----|
--3-----x--3--3--3--x--3--|--2-----x--2--2--2--x--2--|
--3-----x--3--3--3--x--3--|--3-----x--3--3--3--x--3--|
--1-----------1-----------|--0-----------0-----------|


E E E E E E E E W W
--------------------------|-------------------|-------------------||
--------x-----------x-----|--1----------------|--L----------------||
--0-----x-----------x-----|--2----------------|--L----------------||
--0-----x--0--0--0--x--0--|--2----------------|--L----------------||
--2-----x--2--2--2--x--2--|--0----------------|--L----------------||
--3-----------3-----------|-------------------|-------------------||




Duration Legend
---------------
W - whole
H - half
Q - quarter
E - 8th
S - 16th
T - 32nd
X - 64th
. - note dotted
|-n-| - n-tuplets


Tablature Legend
----------------
L - tied note
x - dead note
g - grace note
(n) - ghost note
> - accentuded note
NH - natural harmonic
AH - artificial harmonic
TH - tapped harmonic
SH - semi harmonic
PH - pitch harmonic
h - hammer on
p - pull off
b - bend
br - bendRelease
pb - preBend
pbr - preBendRelease
brb - bendReleaseBend

/ - tremolo bar dip
icon_cheesygrin icon_cheesygrin icon_cheesygrin

#
j'ai un petit lien pour toi icon_cheesygrin
http://guitariste2.skyblog.com/ dedans ya plein de tab' faciles expliquées en vidéos !!!

chipie.foxtrot

Modérateur
#
hello baka Hu ,sur ta tablature,il faut
que tu enlèves les indications de temps :
Duration Legend
---------------
W - whole
H - half
Q - quarter
E - 8th
S - 16th
T - 32nd
X - 64th
. - note dotted
|-n-| - n-tuplets

ces indications sont au dessus de la ligne de E...
parce que ,là,c'est comme si tu mettais une partition hum

et sur partoch,on a pas le droit endesaccord1

je joue de la guitare à six schtroumphs !
#
Bonjour , je connais quelque partition pour débutant (nirvana,zombie,bob marley,etc...) j ai aussi une petite création personnelle icon_cheesygrin

par contre je ne suis pas doué pour les copier avec des caractères d'écriture icon_cry

par contre je peut les passer par mon skype icon_cheesygrin

mon skype : goodfish723 (veuillez dire si vous voulez un morceau specifique ou apprendre tout les morceau je ferait de mon mieux..)


cordialement : The Hendrix


nouveau message Répondre Recherche


plan Plan du Forum Débutants||Tags : faire, morceau, les, quelques, accord, probleme, fait, jouer, base