Tommy Inkila -- Mystery man Bang Bang


nouveau message Répondre
Recherche

#
Voila je cherche cette tablature on peux écouter cette chanson dans le jeux frets on fire et je la cherche depuis un bon bout de temps maintenant et sans succès alors je me remets a vous . Merci



#
up smile icon_redface lease

#
Moi pareil sauf que je cherche defy the machine!
ps : c'est Tommi Inkila

#
Salut,

Parce que je n'ai pas trouve le tablature du Bang Bang Mystery Man je l'ai fait moi-meme et voila!
Je l'ai fait en anglais parce que se suis Holandais et je ne sais pas les mots Francais.

INTRO (0:00)

Bass Riff 1
G|---------3---0---|---------3---2---|
D|-0---3-----------|-0---3-----------| 3x
A|-------------------|-------------------|
E|-------------------|-------------------|
Pre-Chorus (0:24)

Bass Riff 2
G|-------------|-------------|-------------|-------------|
D|-------------|-00----22--|-33----77--|-55---3--2-|
A|-11----44--|-------------|-------------|-------------|
E|-------------|-------------|-------------|-------------|

G|-------------|-------------|
D|-------------|-------------|
A|-1---0-----|-----0-------|
E|-------------|-------------|

CHORUS (0:45) bass and guitar togther

Bass
G|-------------|-------------|
D|-0---3-----|-3---1------| 4x
A|-------------|-------------|
D|-------------|-------------|

Guitar (don’t know the strumming pattern, but these are the chords)
Dm F C G
E|--1-----1----|----0----3---|
B|--3-----1----|----1----0---|
G|--2-----2----|----0----0---|
D|--0-----3----|----2----0---| 4x
A|--0-----3----|----3----2---|
E|--x-----x----|----0----3---|

then

Bass Riff 1 (1:00) (3x)

And at 1:25 Bass Riff 2

Then Chorus (1:45), first only guitar, after two chords the bass too



Guitar solo (2:02)

E|----------8--------------------------|----------8----------------------|
B|-10--10---10---108-85-/8-8-|-10--10---10---8/10-8-8-10-6-6-|
G|---------------------------------------|-------------------------------|
D|---------------------------------------|-------------------------------|
A|---------------------------------------|-------------------------------|
E|---------------------------------------|-------------------------------|

E|------------8---------8-14-8-----|-12/22--22-22-17p16p15h16h17p16p
B|-10--10---10---10--------------|--------------------------------
G|------------------------------------|--------------------------------
D|------------------------------------|--------------------------------
A|------------------------------------|--------------------------------
E|------------------------------------|--------------------------------

E|15h16-|10~~~~~-------|
B|---------|----------------------|
G|---------|----------------------| During solo, bass plays the
D|---------|----------------------| chorus part 4x
A|---------|----------------------|
E|---------|----------------------|

Bass Riff 2 (2:19) (same, but play the double notes single)

CHORUS (2:39)

Then the same guitar solo again, with the same bass riff as the chorus, but the hammering part from the solo is a bit longer and without the last 10~~~~~~.

#
Je pense que je vais poster les autres tablatures du Tommi Inkila aussi.

#
J'ai trouvé :)

-5---5--x-x-x--8-----x-x-x--8---x--8--x-x--8----8---x-x-x--6----x-x-x--6--x--6
-5h6-6--x-x-x--8h10--x-x-x--10--x--10-x-x--8----8---x-x-x--6----x-x-x--6--x--6
-5h7-7--x-x-x--8h10--x-x-x--10--x--10-x-x--8h9--9---x-x-x--6h7--x-x-x--7--x--7
-5h7-7--x-x-x--8h10--x-x-x--10--x--10-x-x--8h10-10--x-x-x--6h8--x-x-x--8--x--8
-5---7--x-x-x--8-----x-x-x--8---x--8--x-x--8h10-10--x-x-x--6h8--x-x-x--8--x--8
-5---7--x-x-x--8-----x-x-x--8---x--8--x-x--8----8---x-x-x--6----x-x-x--6--x--6

By Dandy

Copiez le dans Bloc note wink


nouveau message Répondre Recherche


plan Plan du Forum Tablatures||Tags : bang, cherche, mystery, peux, ecouter, chanson, tablature, tommy, man