gros problemes de lecture de tablature et de mise en pratique


nouveau message Répondre
Page 1 de 3
Recherche

#
Bonjour, je ne savais pas trop ou ranger ce post alors je l'ai plaçé ici, (libre aix modérateurs de le déplacer)
Mon probleme, je viens d'obtenir des tabs via le net , sur un groupe que j'aime beaucoup, la chanson est Bruise Violet(babes in toyland), et lorsque je lis la tablature, je ne comprends pas sa mise en forme, sa lecture, son application a la gratte...pourtant je suis persuadée que cette tablature n'est pas compliquée, mais je n'y arrive pas, je ne comprends pas ,je n'ai aucune notion de solfege, je ne sais pas à quoi ressemble un mi ou un sol, j'ai appris seule ce que je sais , c'est a dire avec les principaux accords de base, façon maternelle...comment vous dire ...bref, j'ai regardé aussi ce que proposait le site au niveau tablature,(comment lire), au début ça va mais apres je pige plus...sauf si on me montre , le probleme personne pour me montrer...bon désolée pour ce post qui ne m'apportera rien, désolée de vous avoir embeté....



#
T était voir la section debutant
4 onglet en haut
wink

#
as-tu un lien avec la-dite tablature, qu'on puisse t'expliquer des trucs directement dessus si vraiment tu piges pas avec les cours de partoch ?

#
Bruise Violet Tab by Babes In Toyland, www.Ultimate-Guitar.Com

Intro/Chorus
e|-----------------------|
b|-----------------------|
g|-----------------------|
d|-----------------------|
a|--11--10--10--9--7--5--|
E|---9---9---8--7--5--3--|

Verse
e|--------|
b|--------|
g|--------|
d|--2--5--|
a|--2--5--|
E|--0--3--|

e|------------------|--------------|
b|------------------|--------------|
g|-----4--4--4--4b--|--------------|
d|--4---------------|--4--5--6--7--|
a|--4---------------|--4--5--6--7--|
E|--2---------------|--2--3--4--5--|

Outro
e|--------------------------|
b|--------------------------|
g|--------------------------|
d|--------------------------|
a|--11--10--10--9--7--5--2--|
E|---9---9---8--7--5--3--0--|

voilà

#
b=bend = tirer de corde

#
je comprends pas la 3ème partie, la série des 4, et le reste a coté

#
emilysombre
emilysombre a écrit :
Bruise Violet Tab by Babes In Toyland, www.Ultimate-Guitar.Com

Intro/Chorus
e|-----------------------|
b|-----------------------|
g|-----------------------|
d|-----------------------|
a|--11--10--10--9--7--5--|
E|---9---9---8--7--5--3--|

Verse
e|--------|
b|--------|
g|--------|
d|--2--5--|
a|--2--5--|
E|--0--3--|

e|------------------|--------------|
b|------------------|--------------|
g|-----4--4--4--4b--|--------------|
d|--4---------------|--4--5--6--7--|
a|--4---------------|--4--5--6--7--|
E|--2---------------|--2--3--4--5--|

Outro
e|--------------------------|
b|--------------------------|
g|--------------------------|
d|--------------------------|
a|--11--10--10--9--7--5--2--|
E|---9---9---8--7--5--3--0--|


voilà



e,b,g,d,a,E sont les cordes (mi,si,sol,ré,la,MI < -- la plus grosse)

les chiffres représentent les cases sur lesquelles appuyer

#
emilysombre
emilysombre a écrit :
je comprends pas la 3ème partie, la série des 4, et le reste a coté



le reste à côté se sont des power chords, faut jouer comme un accord, mais que ces trois cordes là

#
pour les chiffres qui correspondent aux cases ça je sais, je sais aussi que la corde E est la plus grave par contre je ne savais pas qu'elle correspondait au mi grave ou euh..mi majeur?je dis peut etre des c*nneries

#
adrienovich a écrit :

emilysombre
emilysombre a écrit :
je comprends pas la 3ème partie, la série des 4, et le reste a coté



le reste à côté se sont des power chords, faut jouer comme un accord, mais que ces trois cordes là

oui mais ça correspond a quoi comme accord?
merci du coup de pouce

#
emilysombre
emilysombre a écrit :
pour les chiffres qui correspondent aux cases ça je sais, je sais aussi que la corde E est la plus grave par contre je ne savais pas qu'elle correspondait au mi grave ou euh..mi majeur?je dis peut etre des c*nneries



quand tu parles d'UNE note, il n'y a pas de majeure ou mineure !

cette appellation est valable pour les accords, ou les gammes.

pour la notation, c'est la notation anglaise :

A la
B si
C do
D ré
E mi
F fa
G sol

#
emilysombre
emilysombre a écrit :

adrienovich a écrit :

emilysombre
emilysombre a écrit :
je comprends pas la 3ème partie, la série des 4, et le reste a coté



le reste à côté se sont des power chords, faut jouer comme un accord, mais que ces trois cordes là

oui mais ça correspond a quoi comme accord?
merci du coup de pouce



je dirais que la première note donne le nom à l'accord, donc comme une case représente un demi-ton, pour tes quatre power chords nous avons : fa#,sol,sol#,la

normalement c'est joué en barré, mais là on ne joue que les trois premières cordes, ce sont des accords souvent utilisés dans le rock

#
Mouais......pas gagné

#
e|------------------|--------------|
b|------------------|--------------|
g|-----4--4--4--4b--|--------------|
d|--4---------------|--4--5--6--7--|
a|--4---------------|--4--5--6--7--|
E|--2---------------|--2--3--4--5--|

Comment interpreter 4 4 4 4b? est ce que ça fait un accord barré oui mais comment on le sait??
Pareil pour 4 5 6 7 ,si c'est 1 barré ,c'est quel case la 4 puis la 5 , non je comprends pas les tablature ça reste flou, et meme sur le guide de partoch, c'est pas bien expliquer quant on y connait strictement rien, je dis bien rien!
et pourtant je joue, j'ai tatonné, grave jusqu'a trouver les bons sons et les accords de base je les connais, j'ai eu mal aux doigts , mais voilà, je joue quand meme ,meme si c'est loin d'etre parfait , mais put1 les tablatures ça passe pas!!!je ne sais siaisis pas ; oui ok, faut mettre les doigts sur les cordes indiquées ,les chiffres st les cases...mais ça passe pas quand j'arrive a la 4éme corde et tout le reste...

#
les notations peuvent changer selon l'auteur des tablatures wink
donc le 4b peut vouloir dire qu'il faut faire un bend
donne le nom de la tab, sa sera mieux pour t'aider
sa serais pas scentless aprentice de Nirvana sa?



nouveau message Répondre
Page 1 de 3
Recherche


plan Plan du Forum Débutants||Tags : tablature, comment, dire, post, probleme, sais, lecture, comprends, mise