tablature marc antoine


nouveau message Répondre
Recherche

#
Salut a tous!! je cherche la tablature ou les accords de la chanson de marc antoine tant besoin de toi
Merci d avance wink



#
Allez s il vous plait si vous pouviez me les donner ou me dire ou je pourrais les trouver sa serait sympa merci
suis triste snif sad

#
hey je la cherche aussi avec ardeur mais elle est vraiment introuvable.CA se coprend du fait que c'est un nouveau artist wobble

lagueuse95

Petit Downloader
#
J'aimerai beaucoup l'avoir aussi alors si vous la trouvez pensez à moi SVP§

Si vous trouvez Marc Antoine en même temps, je prends aussi !!!!!

#
Heyy la popolass

ben j'ai taffé dsus un ti peu, j'espère que sa vous ira bon c'est pas super super mais sa le fait

.-----.-----.--0--.-----.---------------------
.-----.-----.-----.-----.---------------------
.-----.-----.-----.-----.--------------------- <========= G
.-----.-----.-----.-----.---------------------
.-----.--0--.-----.-----.---------------------
.-----.-----.--0--.-----.---------------------

.-----.--0--.-----.-----.---------------------
.-----.-----.--0--.-----.---------------------
.-----.--0--.-----.-----.--------------------- <========= D
.-----.-----.-----.-----.---------------------
.-----.-----.-----.-----.---------------------
.-----.-----.-----.-----.---------------------

.-----.-----.-----.-----.---------------------
.--0--.-----.-----.-----.---------------------
.-----.-----.-----.-----.--------------------- <========= C
.-----.--0--.-----.-----.---------------------
.-----.-----.--0--.-----.---------------------
.-----.-----.-----.-----.---------------------

.-----.--0--.-----.-----.---------------------
.-----.-----.--0--.-----.---------------------
.-----.--0--.-----.-----.--------------------- <========= D
.-----.-----.-----.-----.---------------------
.-----.-----.-----.-----.---------------------
.-----.-----.-----.-----.---------------------


G......D............C...........D
Si tu m'abandonnes,je n'aurais plus personne

G.......D...............C.....D
De ton amour je serais privé

G.......D.......C..........D
Chaque seconde sera ma fin du monde

G..............D..........C........D
Je n'pourrais jamais le supporter

G.....D..............C...D...............G
J'ai tant besoin de toi,t'es mon amour à moi

G.....D..............C...D.....................G
J'ai tant besoin de toi,j'irais partout où tu iras

G.....D..............C...D...............G
J'ai tant besoin de toi,t'es mon amour à moi

G.....D..............C...D........................G
J'ai tant besoin de toi,j'ten pris ne me quittes pas

G............D....C..........D
Pourquoi tu pars,est-il trop tard?

G............D.............C.....D
On pourrait au moins s'en parlé

G............D.......C................D
Faut pas qu'tu crois ce que l'on dit de moi

G...........D......C..........D
Oublies ce que te disent les autres

G.....D..............C...D...............G
J'ai tant besoin de toi,t'es mon amour à moi

G.....D..............C...D.....................G
J'ai tant besoin de toi,j'irais partout où tu iras

G.....D..............C...D...............G
J'ai tant besoin de toi,t'es mon amour à moi

G.....D..............C...D........................G
J'ai tant besoin de toi,j'ten pris ne me quittes pas




Voila voila j'espère que sa vous plaira quand meme parceque sa ma pris une bonne demi heure a tout tapé a la main XD !! a bientot !


nouveau message Répondre Recherche


plan Plan du Forum Tablatures||Tags : tablature, antoine, marc, cherche, les, accords, chanson, avance, merci