recherche un tablature


nouveau message Répondre
Recherche

#
smiley-guitar salut tout le monde je recherche la tablature de under the bridge des red ho chilli peper jusqua maintenan je n est trouvé ke des tablature bidon si qu elle qu un la faite moi signe s il vous plait merci bonne soirée



pascal17

Petit causeur
Jeune tabber
Petit Downloader
11 photos
Membre VIP
48 messages
Modérateur
#
voici la mienne,
elle fonctionne à merveille,
mais il y a du boulot,
surtout comme ca,
sans les paroles...

si tu veux des precisions...
MP.

Under The Bridge Red Hot Chili Peppers

Intro(capo 2nd fret) :
(chords indicated with capo)
(let ring throughout the intro)
C e C
e|---------------------!---------------------!--------------___----------|
b|(1)------1-----------!(0)------------------!-------------1-3-1---------|
g|-----0-----0---------!---------1-----------!---------0---------0-------|
d|---2---2-------------!-----2-----2-2-0-----!-----2---------------2/4-4-|
a|-3-----------2-0-----!---2---2---------3-0-!-2/3---3---3---------3/5-5-|
E|-----------------3-2-!-0-------------------!---------------------------|

E C E
e|---------------------!-------------------------!---------------------|
b|-0-------------------!-------------1-----------!---------------------|
g|---------1-----------!---------0-----0---------!---------1-----------|
d|-----2-----2-2-0-----!-----2-----2-------------!-----2-----2-2-0-----|
a|---2---2---------3-0-!-2/3---3---------2-0-----!---2---2---------3-0-|
E|-0-------------------!---------------------3-2-!-0-------------------|

C E
e|--------------___----------!-----------------------|
b|-------------1-3-1---------!-----------------------|
g|---------0---------0-------!---------1-----1-------|
d|-----2-----2---------2/4-4-!-----2-----2-----2-----|
a|-2/3---3-------------3/5-5-!---2---2-----2-----2/5-|
E|---------------------------!-0---------------------|

Part A endesaccord3chords only)
NB : Emaj7 :779897

E B(VII) C#m(IX) B(7) A(V)

E B(VII) C#m(9) A(V)

N.C. E B C#m B A

E B C#m A Emaj7(let ring)


Part B :
E B C#m B A

E B C#m A

E B C#m B A

E B C#m A Emaj7(let ring)


Part C endesaccord3repeat three times)
F#m(IX) E B(XIV) F#m(XIV)

F#m(IX) E B(XIV) F#m(XIV)


third time :
E B C#m (B) A E B C#m A
way_____ yea Yea yea
Repeat Part B with the following words :

autre couplet...




Then part C, with that end (let's call it part D):

A C G6 Fmaj7
way____ yea!___ yea. yea____.
e|-------0-0___--------------0--0-0-0--------0---|
b|-------5-5 8 5-------------3--3-3-1------1-1-1-|
g|-------6-----5-------------4--4-4-2------2-2---|
d|-------7-----5-------------5--5-5-3------3-3---|
a|-----------------------------------------------|
E|-----------------------------------------------|

A C/G G6 Fmaj7 A C/G G6 Fmaj7

(with part D's rythm figure)

Then part E :
Chords:
#1(name?) : X X 10 10 10 12 ou FFFFFFFFF EEEEE GG
#2 : X X 9 9 9 10
#3 : X 10 12 12 12 X

#1 #2 #3
(spoken) : One time.

Part F(or so...) :
Guitar 1 plays part D while accoustic guitar plays :

(acc guitar) A C G6 Fmaj7
(lead vocal)
(back vocals)

(with same chords):





And now the outro (or part G):
A C G6 ? A C
let ring--------- let ring--------
e:-0-0-0--0-------------:-0-0---0------_---0---|-0--0-0------------_----|
b:-5-5-5--5-5--5-5--5-5-:-3-3---0-----0 1----1-|-5--5-5--5--5-5-5-8 5-5-|
g:-6-6-6--6-5--5-5--5-5-:-4-4---2--------------|-6--6-6--5--5-5-5-5-----|
d:-7-7-7--7-5--5-5--5-5-:-5-5---3--------------|-7--7-7--5--5-5-5-------|
a:----------------------:----------------------|------------------------|
E:----------------------:----------------------|------------------------|

G6 Fmaj7 A C G6 Fmaj7
let ring------ let ring----
e:-0--0-0--0---0--___----:-0--0-0---------_----:-0--0-0--0---0--0-0--|
b:-3--3-3--0---1-0 1 0---:-5--5-5-5--5-5-8 5---:-3--3-3--0---1--1-1/-|
g:-4--4-4--2---2-------2-:-6--6-6-5--5-5-----5-:-4--4-4--2---2--2-2/-|
d:-5--5-5--3---3---------:-7--7-7-5--7-7-------:-5--5-5--3---3--3-3/-|
a:-----------------------:---------------------:---------------------|
E:-----------------------:---------------------:---------------------|

A C G6 Fmaj7 A
let ring------- let ring-
e|-0--0-0-------------------|-0-------0---0-|----0------|
b|-5--5-5---5--5-5--5-------|-3--3----0---1-|----2------|
g|-6--6-6---5--5-5--5 7 5---|-4----0--2---2-|----2------|
d|-7--7-7---5--5-5---___--7-|-5-------3---3-|----2------|
a|--------------------------|---------------|----0------|
E|--------------------------|---------------|-----------|


http://www.partoch.com/artistes/tablature,Red+hot+chili+peppers,Under+the+bridge...

#
merci c est gentil mai o lieu de comencé l intro en 3 1 decale tt t note en 5 3 tu vera sa passe bc mieux bye

#
ouais l'original et en 4 / 5 !

#
micka666 a écrit :
merci c est gentil mai o lieu de comencé l intro en 3 1 decale tt t note en 5 3 tu vera sa passe bc mieux bye


C'est deja le cas sur la tab de Pascal, car il est indiqué d'utiliser un capo en 2 wink

#
ah oui ^^ j'avais pas fait gaffe dsl rohh chuis un boulet sa super longtemps que je me complique a la jouée sans mon capo -_-" !!!

pascal17

Petit causeur
Jeune tabber
Petit Downloader
11 photos
Membre VIP
48 messages
Modérateur
#
 Citation :
merci c est gentil mai o lieu de comencé l intro en 3 1 decale tt t note en 5 3 tu vera sa passe bc mieux bye

Cher Mika,
Le langage sms n'est pas toléré ici,
essaye de faire un petit effort sur tes prochains posts,
merci.


nouveau message Répondre Recherche


plan Plan du Forum Tablatures||Tags : tablature, recherche, des, monde, chilli, peper, red, tout, under